Song name
# A B C D E F G H I J K L M N O P Q R S T U V W X Y Z

Conjure One - Tears From The Moon tab

------------------------------------------------------------------
                 Conjure One feat. Sinéad O'Connor
------------------------------------------------------------------


This is the tab for "Tears from the moon" by Conjure One. 
So hope you enjoy!!!




e----8------8------8------11------9------8------------------------|
B-----------------------------------------------11----------------|
G-----------------------------------------------------------------|
D-----------------------------------------------------------------|
A-----------------------------------------------------------------|
E-----------------------------------------------------------------|

e----9-----8-------------------8----------------------------------|
B----------------11-----9------------11-----8-----9---------------|
G-------------------------------------------------------10--------|
D-----------------------------------------------------------------|
A-----------------------------------------------------------------|
E-----------------------------------------------------------------|


That's it :)
Tap to rate this tab
# A B C D E F G H I J K L M N O P Q R S T U V W X Y Z