Song name
# A B C D E F G H I J K L M N O P Q R S T U V W X Y Z

Connan Mockasin - Forever Dolphin Love Acoustic tab

Song: Forever Dolphin Love (Acoustic)
Artist: Connan Mockasin
Album: Forever Dolphin Love

Tabbed by: L. A Rai

Intro:

E---------------------------|
B---------------------------|
G---------------------------|
D-----5-7-5-7---------------|
A-------------5-7-5-7-------|
E-3-5-----------------------|


E----------------------------|
B----------------------------|
G---5------------------------|
D-7---7-5-7------------------|
A----------------------------|
E----------------------------|

This is played throughout the rest of song, with variation:

E-7--3--5--2--0---------------3--4----------|
B-5--3--3--0--3---------------3--4----------|
G-5--4--4--0--0---------------4--5----------|
D-5--5--3--2--4---------------5--6----------|
A-7--5--5--2--5--3-2-3-2-3-2--5--6----------|
E-5--3--3--0--0---------------3--4----------|



If you get a chance, check out my original music:
http://soundcloud.com/laura-rai

Thanks :D
Tap to rate this tab
 
# A B C D E F G H I J K L M N O P Q R S T U V W X Y Z