Song name
# A B C D E F G H I J K L M N O P Q R S T U V W X Y Z

Connells - 74-75 tab

Intro
|----------1--0------1-0-1-|   
|----------0--0------2-2-2-|
|--2-0-----2--0--2-2-2-2-2-|
|-0----3-0-3--2--0-0-0-0-0-|
|-------------3------------|


   F      C          F                    C    G       F
1. Got no reason for coming to me and the rain running down 
              C        Am
   there's no reason
   F       C          F                      C   G       F
   and the same voice coming to me like it's all slowing down 
         C           G
   and believe me

             Am              C
R: I was the one who let you know, 
              G          F
   I was just sorry ever after
           Am             C      G
   seventy-four , seventy-five

   F        C     F                          C G     F
2. It's not easy, nothing to say 'cause it's already said 
              C       Am
   It's never easy
          F            C           F                 C
   When I look on your eyes then I find that I'll do fine 
          F            C              G
   When I look on your eyes then I do better

             Am              C
R: I was the one who let you know, 
              G          F
   I was just sorry ever after
           Am             C      G
   seventy-four , seventy-five
            Am              C
   Givin me more and I'll defy, 
                G           F
   cause you're really only after
           Am             C        G
   seventy-four , seventy-five

Repeat Intro
|----------0--3------0-0-0-|   
|----------1--0------1-0-1-|   
|----------0--0------2-2-2-|
|--2-0-----2--0--2-2-2-2-2-|
|-0----3-0-3--2--0-0-0-0-0-|
|-------------3------------|

Solo

|-----------------2/4-------------------------------------------------|
|---2/4-2---2/4------4--4-4/7-----------------------------------------|
|--------4-----4---------------3---4-3---3-3-4-3---------3h4-3--------|
|------------------------------------------------4--4h6--------6--4h6-|
|---------------------------------------------------------------------|
|---------------------------------------------------------------------|


|----------------2/4------2/4---2/4---------------------|
|--2/4-2---2/4------4--4-----4-----4--0---4/5-4---------|
|-------4-----4-----------------------------------4-3-1-|
|-------------------------------------------------------|
|-------------------------------------------------------|
|-------------------------------------------------------|


   F      C          F                    C    G       F
3. Got no reason for coming to me and the rain running down 
              C        Am
   there's no reason
          F            C           F                 C
   When I look on your eyes then I find that I'll do fine 
          F            C              G
   When I look on your eyes then I do better

             Am              C
R: I was the one who let you know, 
              G          F
   I was just sorry ever after
           Am             C      G
   seventy-four , seventy-five
            Am              C
   Givin me more and I'll defy, 
                G           F
   cause you're really only after
           Am             C        G
   seventy-four , seventy-five
             
             Am              C
   I was the one who let you know, 
              G          F
   I was just sorry ever after
           Am             C      G
   seventy-four , seventy-five
            Am              C
   Givin me more and I'll defy, 
                G           F
   cause you're really only after
           Am             C        G
   seventy-four , seventy-five
Tap to rate this tab
# A B C D E F G H I J K L M N O P Q R S T U V W X Y Z