Song name
# A B C D E F G H I J K L M N O P Q R S T U V W X Y Z

Conner - Silent Film Score tab

 this is a great song by one of the most under appreciated bands
 in the history of alternative music, anyone who even knows
 of this song is fine by my book.


verse riff

if you play this acoustically it will sound lower than in the song (distortion people).

e -----------------------------------------------|
B------------------------------------------------|
G--55--55--77--77--44--44--99--99----------------|
D--55--55--77--77--44--44--99--99----------------|
A--33--33--55--55--22--22--77--77----------------|
E------------------------------------------------|x6


chorus

e------------------------------------------------|
B------------------------------------------------|
G--5-5-55--5-5-55--------------------------------|
D--5-5-55--5-5-55--------------------------------|
A--3-3-33--3-3-33--------------------------------|
E------------------------------------------------|x2

different strumming here

e-----------------------------------------------|
B--------------5--------------------------------|
G--5-5-5-55--555555--5-5-55-5-5-55-4------------|
D--5-5-5-55--553555--5-5-55-5-5-55-4------------|
A--3-3-3-33--33-333--3-3-33-3-3-33-2------------|
E-----------------------------------------------|


e----------------------------------------------|
B----------------------------------------------|
G--5-5-5-55--55555554-4-4-444-4-4-44-----------|
D--5-5-5-55--55555554-4-4-444-4-4-44-----------|
A--3-3-3-33--33333332-2-2-222-2-2-22-----------|
E----------------------------------------------|

back to verse

thats it. keep in mind that this song is not the same without drums.

questions? comments? bwehde__@hotmail.com
Tap to rate this tab
# A B C D E F G H I J K L M N O P Q R S T U V W X Y Z