Song name
# A B C D E F G H I J K L M N O P Q R S T U V W X Y Z

Connie Lynch - Roxanne tab

This version is barely known, although it's at least as great as dilana smith's.... 
it out on her homepage (myspace)

Verse/Intro:
     Em         Em/D        Cmaj7     Bm          Am           Dsus4 D
e|----------0---------------------0---------------------0----------3-2-|
B|--------0-----------3---------0-----------3---------1----------3-----|
G|------0-----------2---------0-----------4---------2----------2-------|
D|----------------0---------------------4--------------------0---------|
A|----7---------5----------3----------2----------0---------------------|
E|---------------------------------------------------------------------|

      Em
e|-------------------------|
B|----------8~-------------|
G|----------9~-------------|
D|--------9----------------|
A|------7------------------|
E|----0--------------------|

Bridge:

      Am      Dsus4  D       Em  Emmaj7 Em
e|--------1--------3-2--------3---2------0--|
B|------2--------3------------0---0------0--|
G|----2--------2--------------0---0------0--|
D|-----------0--------------2~--------------|
A|--0---------------------2~----------------|
E|----------------------0~------------------|

      Am      Dsus4  D       Em
e|--------0--------3-2------------------------------|
B|------1--------3----------------------------------|
G|----2--------2------------------------------------|
D|-----------0----------------2--2-2-2-2-2-2-2------|
A|--0-------------------------2--2-2-2-2-2-2-2------|
E|----------------------------0--0-0-0-0-0-0-0------|


refrain:

just play open chords

|G  |G   D|D   |D   Em|Em   |Em   G|G    D|D    |D    Em~

Interlude/Solo:

just the first two chords of Intro/Verse repeated several times

the solo will be added as soon as I have an E-guitar...

http://profile.myspace.com/index.cfm?fuseaction=user.viewProfile&friendID=203957832
Tap to rate this tab
 
# A B C D E F G H I J K L M N O P Q R S T U V W X Y Z