Song name
# A B C D E F G H I J K L M N O P Q R S T U V W X Y Z

Conor Maynard - Just In Case Acoustic tab

Capo 4,Standard tuning

[Intro]

|-----0-----3-----2-----0-----0-----3--1--|
|-----1--3--3-2-4-3-----1--3--0-----3-----|
|-----0-----0-----2-0-2-0-----0-2-4-2-----|
|-----2-----0-----0-----2-----2-----0-----|
|-----3-----2-----------3-----2-----------|
|-----0-----3-----------0-----0-----------|

[verse 1]

Em                  G
So crazy to see you smiling,
         D
Heard he makes you feel incredible,
Em                      G
But I don't wanna hear about it,
    D
Coz I'm the fool that let you go,
Em                             G
I wish that I could turn away,
                  D            Em
I can't watch him in my place,
               G       D
Maybe I'm just jealous

[Pre Chorus] 
|-----0-----0-----2-----0-----0-----3--1--|
|-----1--3--0-2-4-3-----1--3--0-----3-----|
|-----0-----0-----2-0-2-0-----0-2-4-2-----|
|-----2-----2-----0-----2-----2-----0-----|
|-----3-----2-----------3-----2-----------|
|-----0-----0-----------0-----0-----------|

                                             
So baby just in case he makes the mistakes that I did,
And he don't see what I miss


[Chorus]
 
    C      G       Em       D
Just promise me you won't forget,
    C          G     Em      D
You don't have to settle for less,
                 C           G     Em   D
Promise that you never never never ever ever,
                 C           G     Em   
Promise that you never never never ever ever,
D
Ever forget me


[verse 2]
Em       
He tells you that he loves you,
     G           D           
You never heard that before,
Em                                G
Can't figure how you ended up with him,
              D              
But I guess that was my fault
Em                            G 
I wish that I could turn away,
                  D           Em
I can't watch him in my place,
               G      D
Maybe I'm just jealous

[Pre Chorus]
|-----0-----0-----2-----0-----0-----3--1--|
|-----1--3--0-2-4-3-----1--3--0-----3-----|
|-----0-----0-----2-0-2-0-----0-2-4-2-----|
|-----2-----2-----0-----2-----2-----0-----|
|-----3-----2-----------3-----2-----------|
|-----0-----0-----------0-----0-----------|

                                             
So baby just in case he makes the mistakes that I did,
And he don't see what I miss

[Chorus]
   C      G       Em       D
Just promise me you won't forget,
    C          G     Em      D
You don't have to settle for less,
                 C           G     Em   D
Promise that you never never never ever ever,
                 C           G     Em   
Promise that you never never never ever ever,
D
Ever forget me

[Bridge]
C
I'm not try'na get involved,
Em
Girl I just wanna let you, know,
G
That if you you ever let him go,
Em            D
I'll be here waiting for you,
C
Even though I wanna turn away,
G              
I know my heart is gonna stay,
             Em         D
Coz they got nothing on you

[Chorus]
        C               Em        D               C
So baby just in case he makes the mistakes that I did,
       Em              D               
And he don't see what I miss
     C      G       Em       D
Just promise me you won't forget,
    C          G     Em      D
You don't have to settle for less,
                 C           G     Em   D
Promise that you never never never ever ever,
                 C           G     Em   
Promise that you never never never ever ever,
D
Ever forget me
Tap to rate this tab
# A B C D E F G H I J K L M N O P Q R S T U V W X Y Z