Song name
# A B C D E F G H I J K L M N O P Q R S T U V W X Y Z

Conor Oberst And The Mystic Valley Band - Danny Callahan tab

Tuning- Standard (EADGBE)
Guitar Type- Electric
Notes: I did this by ear, so it probably has some mistakes. I know the final run part is 
but I can't figure it out yet. The acoustic he plays is tuned down half a step to 
but I wrote these tabs for the electric at standard tuning. Hope you like it.


Song Intro Riff
e|----------------------------|
B|----------------------------|
G|-----8h9-8-6----------------|
D|-------------8s9------------|
A|----------------------------|
E|----------------------------|


e|------------------------------------------------------------------------------7-------7s9--|
B|------------9--------------------------------------------------7--------6h7h8-------7------|
G|-11-11-11-8---8-8--8--8-8--6-6---6-6h8s9-8-6----6h8h9-8-6--------8-6h8h9-------------------|
D|-------------------------------6-------------6------------6-6------------------------------|
A|-------------------------------------------------------------------------------------------|
E|-------------------------------------------------------------------------------------------|

e|---16-----------------------------------------------------------------------14-------------|
B|-16--16-16--16--16-16-16-14-14----14-14h16-17-16-14----14h16-17-16-14----------16----------|
G|----------16-------------------13-------------------13----------------13-13----------------|
D|-------------------------------------------------------------------------------------------|
A|-------------------------------------------------------------------------------------------|
E|-------------------------------------------------------------------------------------------|

  (Final Scale Run- I havn't figured it out yet, so I just play the one from the first part)
e|-------------7---7s9-------------------------------------------------------|
B|-------6h7h8---7-----------------------------------------------------------|
G|--6h8h9--------------------------------------------------------------------|
D|---------------------------------------------------------------------------|
A|---------------------------------------------------------------------------|
E|---------------------------------------------------------------------------|
Tap to rate this tab
# A B C D E F G H I J K L M N O P Q R S T U V W X Y Z