Song name
# A B C D E F G H I J K L M N O P Q R S T U V W X Y Z

Conor Oberst And The Mystic Valley Band - Nyc-gone Gone tab

e|--------|-----------|-----------------|---------|
B|--------|-----------|-----------------|---------|
G|--------|-----------|-----------------|---------|
D|-9--9-9-|-11-9----9-|-----------------|---------|
A|--------|------11---|-11-11-11-11-9--7|---7-----|
E|--------|-----------|-----------------|-9---9-7-|

e|--------|-----------|-----------------|---------|
B|--------|-----------|-----------------|---------|
G|--------|-----------|-----------------|---------|
D|-9--9-9-|-11-9----9-|-----------------|---------|
A|--------|------11---|-11-11-11-11-9--7|---7-7---|
E|--------|-----------|-----------------|-9-------|

e|--------|-----------|-----------------|---------|
B|--------|-----------|-----------------|---------|
G|--------|-----------|-----------------|---------|
D|-9--9-9-|-11-9----9-|-----------------|---------|
A|--------|------11---|-11-11-11-11-9--7|---7-----|
E|--------|-----------|-----------------|-9---9-7-|
Gone gone from New York City, where you gonna go with a head that empty?

e|--------|-----------|-----------------|---------|
B|--------|-----------|-----------------|---------|
G|--------|-----------|-----------------|---------|
D|-9--9-9-|-11-9----9-|-----------------|---------|
A|--------|------11---|-11-11-11-11-9--7|---7-7---|
E|--------|-----------|-----------------|-9-------|
Gone gone from New York City, where you going to go with a heart that gone?

e|--------|-----------|-----------------|---------|
B|--------|-----------|-----------------|---------|
G|--------|-----------|-----------------|---------|
D|-9--9-9-|-11-9----9-|-----------------|---------|
A|--------|------11---|-11-11-11-11-9--7|---7-----|
E|--------|-----------|-----------------|-9---9-7-|
Down down to Mexico City, caught myself a lady, she know how to treat me.

e|--------|-----------|-----------------|---------|--------|
B|--------|-----------|-----------------|---------|--------|
G|--------|-----------|-----------------|---------|--------|
D|-9--9-9-|-11-9----9-|-----------------|---------|--------|
A|--------|------11---|-11-11-11-11-9--7|---7-7---|----7-7-|
E|--------|-----------|-----------------|-9-------|--9-----|
Down down to Mexico City, caught myself a lady to lay me down, lay me down.

e|--------|-----------|-----------------|---------|
B|--------|-----------|-----------------|---------|
G|--------|-----------|-----------------|---------|
D|-9--9-9-|-11-9----9-|-----------------|---------|
A|--------|------11---|-11-11-11-11-9--7|---7-7---|
E|--------|-----------|-----------------|-9-------|
All my friends want you to know, I'm going to miss you when I go.

e|--------|-----------|-----------------|---------|--------|
B|--------|-----------|-----------------|---------|--------|
G|--------|-----------|-----------------|---------|--------|
D|-9--9-9-|-11-9----9-|-----------------|---------|--------|
A|--------|------11---|-11-11-11-11-9--7|---7-7---|----7-7-|
E|--------|-----------|-----------------|-9-------|--9-----|
But I'll see you down your road, meet me at the station way down low, way down low

e|--------|-----------|-----------------|---------|
B|--------|-----------|-----------------|---------|
G|--------|-----------|-----------------|---------|
D|-9--9-9-|-11-9----9-|-----------------|---------|
A|--------|------11---|-11-11-11-11-9--7|---7-----|
E|--------|-----------|-----------------|-9---9-7-|
Gone gone from New York City, where you going to go with a head that empty?

e|--------|-----------|-----------------|---------|-----------------|-------|
B|--------|-----------|-----------------|---------|-----------------|-------|
G|--------|-----------|-----------------|---------|-----------------|-------|
D|-9--9-9-|-11-9----9-|-----------------|---------|-----------------|-------|
A|--------|------11---|-11-11-11-11-9--7|---7-7---|-11-11-11-11-9--7|---7-7-|
E|--------|-----------|-----------------|-9-------|-----------------|-9-----|
Gone gone from New York City,where you going to go with a heart that gone, heart that gone?

e|--------|-----------|-----------------|---------|
B|--------|-----------|-----------------|---------|
G|--------|-----------|-----------------|---------|
D|-9--9-9-|-11-9----9-|-----------------|---------|
A|--------|------11---|-11-11-11-11-9--7|---7-7---|
E|--------|-----------|-----------------|-9-------|

e|--------|-----------|-----------------|---------|-----------------|-------|
B|--------|-----------|-----------------|---------|-----------------|-------|
G|--------|-----------|-----------------|---------|-----------------|-------|
D|-9--9-9-|-11-9----9-|-----------------|---------|-----------------|-------|
A|--------|------11---|-11-11-11-11-9--7|---7-7---|-11-11-11-11-9--7|---7-7-|
E|--------|-----------|-----------------|-9-------|-----------------|-9-----|

e|--------|-----------|-----------------|---------|
B|--------|-----------|-----------------|---------|
G|--------|-----------|-----------------|---------|
D|-9--9-9-|-11-9----9-|-----------------|---------|
A|--------|------11---|-11-11-11-11-9--7|---7-----|
E|--------|-----------|-----------------|-9---9-7-|
Gone gone from New York City where you going to go with a head that empty?

e|--------|-----------|-----------------|---------|-----------------|-------|
B|--------|-----------|-----------------|---------|-----------------|-------|
G|--------|-----------|-----------------|---------|-----------------|-------|
D|-9--9-9-|-11-9----9-|-----------------|---------|-----------------|-------|
A|--------|------11---|-11-11-11-11-9--7|---7-7---|-11-11-11-11-9--7|---7-7-|
E|--------|-----------|-----------------|-9-------|-----------------|-9-----|
Gone, gone from New York City where you gonna go with a heart that gone?
Where you gonna go with a heart that gone?

e|-----------------|-------|
B|-----------------|-------|
G|-----------------|-------|
D|-----------------|-------|
A|-11-11-11-11-9--7|---7-7-|
E|-----------------|-9-----|
Where you gonna go with a heart that gone? 
Tap to rate this tab
 
# A B C D E F G H I J K L M N O P Q R S T U V W X Y Z