Song name
# A B C D E F G H I J K L M N O P Q R S T U V W X Y Z

Conor Oberst And The Mystic Valley Band - Nikorette chords

Highlighted       Show chord diagrams
Tabbed By:Dr.#2

Same chords as before. I just wanted to add in the solo (at least the way I play 
the solo) and a little bit of the lead

D G D X2

e|---------------------------------------------------------------------------|
B|-----------7---------------------------------------------------------------|
G|-7-7-9-7-7---9p7--------7-7-9-7-7------------------------------------------|
D|-----------------9p7------------------7------0-----------------------------|
A|----------------------------------7h9---9p7--------------------------------|
E|---------------------------------------------------------------------------|




D                         G     D     D G D
I'm just trying to stay a human being
D                         G    D    D G D
Sitting in the sun eating ice cream
D                         G         D    D G D
Texting my friend about a bad, bad dream
     D                          G     D   D G D
Just trying to find someone who knows me

      D                       G       D    D G D
But I don't got time for your cuckoo clock
    D                           G     D    D G D
And I don't want to go to your Mason Lodge
        D                        G       D   D G D
There's nothing more sad than a lynching mob
        D                    G      D    D G D
Full of rational men who believe in God

    A
But nothing makes sense when the wave rolls through
A                                       D G D
Nothing makes sense when the wave comes through
                  A
Well, if there's something in me, well, I know it's in you
            A                                   D G D
If there's something in me, well, I bet it's in you

    D                               G        D    D G D
My neighbor dreams big because his house is small
     D                         G    D   D G D
Says all he needs now is some capital
        D                    G       D   D G D
It's a pirate world, it's a free-for-all
               D                      G         D   D G D
They take your bright ideas and they make them dull

          D                      G        D   D G D
But everyone I see I think I've known before
         D                   G       D    D G D
From the opera house to the grocery store
   D                   G     D   D G D
My love for them I cannot ignore
       D (Mute)                    D G D
Like a human voice in a quiet morgue

    A
But I don't want to wear no dead man's suit
A                                      D G D
I don't want to wear no dead man's suit
A
I don't want to wait until the moon gets blue
A                                             D G D
I don't want to wait until the moon turns blue

     Bm         A
It's all just a fix
     Bm         A
Just one little hit
               D G D
You'll hold it in


D                          G     D   D G D
Sitting on a plane chewing nicorette
D                       G       D   D G D
Paradise lost, haven't found it yet
         D                 G     D  D G D
Will you talk me down if I get upset?
        D                    G      D    D G D
Be the cool washcloth to my fevered head

        A       
Because I don't want to dream if it won't come true
A                                          D G D
I don't want to dream if it don't come true
           A                                         
If there's something in me, well, I guess it's in you
            A                                       D G D(hold)
If there's somewhere in me, then I know it's in you

Solo: 
D G D X4 
A
D G D X2

e|---------------------------------------------------------------------------|
B|-----------------7h8-7h8p7-10--10-8\7---7-8-7------------------------------|
G|-----7-9-----7-9----------------------9-------9-7---7-9-7-9-7---7----------|
D|-7-9-----7-9--------------------------------------9-----------9------------|
A|---------------------------------------------------------------------------|
E|---------------------------------------------------------------------------



e|-------------------------------------------------------------------10-10---|
B|-------10-----------------10------------------10---10/12-10--10/12--------|
G|--9/11----11\9-7---7-9/11----11\9-7---7--9/11---11---------11-------------|
D|-----------------9------------------9--------------------------------------|
A|---------------------------------------------------------------------------|
E|---------------------------------------------------------------------------



e|--------------------------------------------------------------5------------|
B|---------------------------------------------------------------------------|
G|--9h11-9------9---------------------------------2-4-2---2-4/6--------------|
D|---------9h11---9h11-9\7----4-2-----2-4-2---2-4-------4--------------------|
A|-------------------------7\-----2-4-------4--------------------------------|
E|---------------------------------------------------------------------------



e|------10------12--------14-----14--14--14\12----12\10---10----------------|
B|---------------------------------------------------------------------------|
G|-3/7------7/9-----9/11------11---11-----------9-------7-------------------|
D|---------------------------------------------------------------------------|
A|---------------------------------------------------------------------------|
E|---------------------------------------------------------------------------|

     Bm          A
It's all just a fix
     Bm          A
Just one little hit
               D G D
You're holding in
               D G D
You'll hold it in
               D G D
You're holding in
               D G D
You'll hold it in
   
    A        
And I don't want to dream if it won't come true
A                                          D G D
I don't want to dream if it don't come true
            A             
If there's something in me, well, I guess it's in you
            A                               
If there's somewhere in me, then I know it's in you
      E
If it happens to me, it's going to happen to you
         E                                       D G D
Whatever happens to me, it's going to happen to you
Tap to rate this tab
# A B C D E F G H I J K L M N O P Q R S T U V W X Y Z