Conquest - Frozen Sky tab

Conquest-Frozen Sky

listen to that song to get rhythm!

Standard Tuning (E-A-D-G-B-e)


e--------15-14-12---------------------------------------------------|
B----12-----------15--12----12---------15--12------13-12------------|
G---------------------------------14---------------------12---------|
D------------------------------------------------------------14b----|
A-------------------------------------------------------------------|
E-------------------------------------------------------------------|


e--------15-14-12--------------------------------|
B----12-----------15--12----12---------15--12b---|
G----------------------------------14------------|
D------------------------------------------------|
A------------------------------------------------|
E------------------------------------------------|

e--------15-14-12--------------------------12b---|
B----12-----------15--12----12---------15--------|
G---------------------------------14-------------|
D------------------------------------------------|
A------------------------------------------------|
E------------------------------------------------|
Tap to rate this tab
 
# A B C D E F G H I J K L M N O P Q R S T U V W X Y Z