Guitaretab - guitar tabs
Song name
# A B C D E F G H I J K L M N O P Q R S T U V W X Y Z

Conrad - Few Words About Gandhi G tab

Band: Conrad
Song: Few Words bout Gandhi G

the entire song is in bar chords, switch between picking the first three strings and strumming the chords at random
[ Tab from: http://www.guitaretab.com/c/conrad/37201.html ]
~=hold
G5           A5           F5           G5
e|--3-3-3-3-3-3--5-5-5-5~~~~--1-1-1-1-1-1--3-3-3-3~~~~---------------------------------------------|
B|--3-3-3-3-3-3--5-5-5-5~~~~--1-1-1-1-1-1--3-3-3-3~~~~---------------------------------------------|
G|--4-4-4-4-4-4--6-6-6-6~~~~--2-2-2-2-2-2--4-4-4-4~~~~---------------------------------------------|
D|--5-5-5-5-5-5--7-7-7-7~~~~--3-3-3-3-3-3--5-5-5-5~~~~---------------------------------------------|
A|--5-5-5-5-5-5--7-7-7-7~~~~--3-3-3-3-3-3--5-5-5-5~~~~---------------------------------------------|
E|--3-3-3-3-3-3--5-5-5-5~~~~--1-1-1-1-1-1--3-3-3-3~~~~---------------------------------------------|


e|--3---------5---------1-------------3-3-3-3~~~~--------------------------------------------------|
B|----3---3-3---5---5-5---1---1-1-1-1-3-3-3-3~~~~--------------------------------------------------|
G|------4---------6---------2---------4-4-4-4~~~~--------------------------------------------------|
D|-------------------------------------------------------------------------------------------------|
A|-------------------------------------------------------------------------------------------------|
E|-------------------------------------------------------------------------------------------------|

very easy song, but beautifully written obviously
Related for Few Words About Gandhi G tab