Song name
# A B C D E F G H I J K L M N O P Q R S T U V W X Y Z

Consumed - Heavy Metal Winner tab

Song:Heavy Metal Winner
Album:Breakfast At Pappa's (EP)
Artist:Consumed
Genre:Punk rock
Year:1998
Tuning:Standard (E,A,D,G,B,E)

Intro Pt.1 x2
E----------------------|
B----------------------|
G-6666-5555-4444-3333--|
D-6666-5555-4444-3333--|
A-4444-3333-2222-1111--|
E----------------------|

Intro Pt.2
E---------------------------------------|
B---------------------------------------|
G-10101010-9999-8888-7777--10---9---8---|
D-10101010-9999-8888-7777--10x4-9x4-8x4-|
A--8-8-8-8-7777-6666-5555---8---7---6---|
E---------------------------------------|

Intro Pt.3
E------------------------|
B------------------------|
G-4-5-6-6----------------|
D-4-5-6-6X11-5-6-4-4-----|
A-2-3-4-4----5-6-4-4X11--|
E------------3-4-2-2-----|

Interlude 1
E------|
B------|
G-4-5--|
D-4-5--|
A-2-3--|
E------|

Pre-Verse 1x2
E-----------------------------------------------|
B-----------------------------------------------|
G-----------------------------------------------|
D-----------------------------------------4-----|
A-11-11-11-11--9-9-9-9--8-8-8-8-----------4X16--|
E--------------------------------9-9-9-9--2-----|
                                          .
Verse 1x6
E----------------------|
B----------------------|
G-6-6------------------|
D-6-6x11--5-6--4-4-----|
A-4-4-----5-6--4-4x11--|
E---.-----3-4--2-2-----|
          . .    .

Interlude 2 Pt.1 x2
E------------------|
B------------------|
G-6---5---4---3----|
D-6x4-5x4-4x4-3x4--|
A-4---3---2---1----|
E------------------|

Interlude 2 Pt.2 x1
E------|
B------|
G-4-5--|
D-4-5--|
A-2-3--|
E------|

Verse 2 x6
E----------------------|
B----------------------|
G-6-6------------------|
D-6-6x11--5-6--4-4-----|
A-4-4-----5-6--4-4x11--|
E---------3-4--2-2-----|
          . .    .

Interlude 3 Pt.1`
E---------------------------------------|
B---------------------------------------|
G-6666-5555-4444-3333---6666-5555-4444--|
D-6666-5555-4444-3333---6666-5555-4444--|
A-4444-3333-2222-1111---4444-3333-2222--|
E---------------------------------------|

Interlude 3 Pt.2
E------|
B------|
G-4-5--|
D-4-5--|
A-2-3--|
E------|

Then:
*Interlude 4 Pt.1
*Interlude 4 Pt.2

Pre-Bridge Pt.1
E-------------------------------------------|
B-------------------------------------------|
G-10101010--9999--8888--7777--10---9---8----|
D-10101010--9999--8888--7777--10x4-9x4-8x4--|
A--8-8-8-8--7777--6666--5555---8---7---6----|
E-------------------------------------------|

Pre-Bridge Pt.2
E------|
B------|
G-4-5--|
D-4-5--|
A-2-3--|
E------|

Bridge
E-------------|
B-------------|
G-6~~~~~~~~~--
D-6~~~~~~~~~--
A-4~~~~~~~~~--
E-------------

Outro Pt.1 x4
E-----------------------------------------------|
B-----------------------------------------------|
G-----------------------------------------------|
D-----------------------------------------4-----|
A-11-11-11-11--9-9-9-9--8-8-8-8-----------4x16--|
E-.--.--.--.---.-.-.-.--.-.-.-.--9-9-9-9--2-----|
                                 . . . .  .

Outro Pt.2 x1 (The End)
E-----------------------|
B-----------------------|
G-6666--5555--4444--3X--|
D-6666--5555--4444--3X--|
A-4444--3333--2222--1X--|
E-----------------------|

Song Order:
-Intro Pt.1 x2
-Intro Pt.2
-Intro Pt.3
-Interlude 1
-Pre Verse 1x2
-Verse 1x6
-Interlude 2 Pt.1 x2
-Interlude 2 Pt.2 x1
-Verse 2x6
-Interlude 3 Pt.1
-Interlude 3 Pt.2
-Interlude 4 Pt.1
-Interlude 4 Pt.2
-Pre Bridge Pt.1
-Pre Bridge Pt.2
-Bridge
-Outro Pt.1 x4
-Outro Pt.2 x1 (The End)

Key:
.=Palm Mute
~=Let Ring Out
X=Immediately Stop Note

Don't Forget To Rate And Comment If You Liked
And I'm Always Open To Corrections

Here's A Link To The Song If You Wanna Play Along To The Song:
http://www.youtube.com/watch?v=pccZCbALmBs
Tap to rate this tab
 
# A B C D E F G H I J K L M N O P Q R S T U V W X Y Z