Song name
# A B C D E F G H I J K L M N O P Q R S T U V W X Y Z

Consumed - Heavy Metal Winner tab

Help us improve GuitareTab! Take a short survey!
                        HEAVY METAL WINNER - Consumed


Transcribed by: concrete@dog.com  -  www.angelfire.com/punk/oskertab

intro (played at other times during song)
------------------------------------------------------------------------------
------------------------------------------------------------------------------
------------------------------------------------------------------------------
-6-6-6-6-5-5-5-5-4-4-4-4-3-3-3-3----------------------------------------------
-4-4-4-4-3-3-3-3-2-2-2-2-1-1-1-1----------------------------------------------
------------------------------------------------------------------------------
                                                                              
verse/chorus (same chords throughout, just use different rhythm)
------------------------------------------------------------------------------
------------------------------------------------------------------------------
------------------------------------------------------------------------------
-4-4--6--6-6-6-6-6--4-6-------------------------------------------------------
-2-2--4--4-4-4-4-4--2-4--4--4-4-4-4-4-----------------------------------------
-------------------------2--2-2-2-2-2-----------------------------------------
                                                                              
riff (played over above chords, and a variation of this played at end)
------------------------------------------------------------------------------
------------------------------------------------------------------------------
------------------------------------------------------------------------------
-----6-6-6-6-4-4-4-4-3-3-3-3--------------------------------------------------
-----------------------------4-4--4-4-----------------------------------------
----------------------------------2-2-----------------------------------------
Related for Heavy Metal Winner tab