Song name
# A B C D E F G H I J K L M N O P Q R S T U V W X Y Z

Continents - Trials tab

www.victoryrecords.com/artists/continents

C |------------------------------------------------------|
G |------------------------------------------------------|
D#|------------------------------------------------------|   (X 2)
A#|------------------------------------------------------|
F |2------2-----1------3-------2------2------------1-----|
A#|-1-0----1-0-----0-1---1-0----1-0----1-0--1--0-3---3---|

next bit you can work out, it's just opens over the snare roll
and then the chug is easy. The chord under it is:

C |0
G |6
D#|7
A#|0
F |-
A#|-

then the little filler section is:

C |----------------------------1/8--|
G |----------------------------5/12-|
D#|-------------88-88-88-88---------|
A#|-------------77-77-77-77---------|
F |1---------3--66-66-66-66---------|
A#|--4-0-1-4-----------------0------|
                             .
next riff, 0:43

C |------------------------------------------------------------------|
G |------------------------------------------------------------------|
D#|------------------------------------------------------------------|
A#|----------------------------------------------------------3-------|
F |----------------------------1-------------------------------1-----|
A#|4-111-0-0---4-111-0-0---4-0---0---4-111-0-0---4-111-0-0-------4-1-|

C |--------------------------------------------------------------------|
G |--------------------------------------------------------------------|
D#|--------------------------------------------------------------------|
A#|----------------------------------------------------------3-------1-|
F |----------------------------1-------------------------------1-----1-|
A#|4-111-0-0---4-111-0-0---4-0---0---4-111-0-0---4-111-0-0-------4-0-1-|

Next chugging riff is easy enough to work out, the bends are on the first fret
then the closing riff on that section is:

C |-------------------------------------|
G |-------------------------------------|
D#|-------------------------------------|
A#|-------------------------------------|
F |---5----1-------0-0-00-0-00-0-00-0-0-|
A#|0----0----0--3--1-1-11-1-11-1-11-1-1-|
                   . . .. . .. . .. . .


C |----------------------------------------------------------------------------|
G |----------------------------------------------------------------------------|
D#|----------------------------------------------------------------------------| (x 2)
A#|----------------------------------------------------------------------------|
F |0000000--111-1-1-111-111-1-1-111--0000000--111-1-1-111-111-1-1-111--0--0--0-|
A#|0000000--000-0-0-000-000-0-0-000--0000000--000-0-0-000-000-0-0-000--1--1--1-|

Ring open after the second time, chords in the background are

C |-----------|
G |-----------|
D#|-----------|
A#|8--then-8--|
F |12------10-|
A#|-----------|

you can work out the patterns for that and for the chug after it,
it's just the same chords with some opens in between.

next riff, not sure about this section.

C |----------------------------------------------------------------12-|
G |-------------------------------------------------------------13----|
D#|----------------------------------------------------------14-------| (x 4)
A#|----------------------------7-8------------------------12----------|
F |--10----10--------10------5--------5----5--------5-----------------|
A#|7-----7-----0-7-7----0--8--------3----3----0-2-3----0--------------|

then you can work out the strumming for the final sextion
but the chords are

C |-----------------|
G |-----------------|
D#|-----------------|
A#|7--9-------------|
F |3--5--10--10--10-|
A#|3--5--7---5---10-|

Then the very end is:

C |---------------------|
G |---------------------|
D#|---------------------|
A#|7-7-7------7-7-7~----|
F |3-3-3------3-3-3~----|
A#|3-3-3------3-3-3~----|
              . .
Tap to rate this tab
# A B C D E F G H I J K L M N O P Q R S T U V W X Y Z