Song name
# A B C D E F G H I J K L M N O P Q R S T U V W X Y Z

Continents - Pegasus Pegasus tab

KEY

. = palm mute
> = slide
~ = let ring
b = bend
v = upstroke


(0:00 - 0:14)

C |-----------------------------------------------|
G |---------------------4---4---4---4---4---------|
D#|---------------------7---7---7---7---7---------|
A#|-----------------------------------------2--3--|
F |-----------------------------------------2--3--|
A#|00-00-0-12>0-00-00-0---0---0---0---0---0-2--3--|
   .v .v .      .v .v .   .   .   .   .   .

C |--------------------------------|
G |--------------------------4---2-|
D#|--------------------------7---5-|
A#|--------------------------------|
F |--------------------------------|
A#|0000-00-00-0-12>0-00-00-0---0---|
   ...v .v .v .      .v .v .   .

(0:14 - 0:24)

C |--------------------------------|
G |--------------------------------|
D#|--------------------------------|
A#|--------------------------------|
F |--------------------------------|
A#|00-00-00---00000000-00-00-00----|
   .v .v .v   .......v .v .v .v

(0:24 - 0:34)

C |-----------------------------------------------------------|
G |101010101010101010101010---------1010101010101010---3---3--|
D#|-----------------------------------------------------------|
A#|8 8 8 8 8 8 8 8 8 8 8 8----------8 8 8 8 8 8 8 8 ----------|
F |----------------------------------------------------1---1--|
A#|-------------------------0000000------------------0---0----|
                            .......                  .   .

C |----------------------------------------------------|
G |101010101010101010101010-----1010101010101010---10>-|
D#|----------------------------------------------------|
A#|8 8 8 8 8 8 8 8 8 8 8 8------8 8 8 8 8 8 8 8 ---8 >-|
F |-------------------------0>8------------------------|
A#|-------------------------0>8------------------0-----|
                                                 .

(0:34 - 1:00)
I'm not 100% certain of the chord progession on this
and I don't have my guitar to hand to check, sorry.

Also, every repetition after the first misses out the first
chord written below. Listen to it, you'll know what I mean.

C |---------------------------------------------------|
G |3-3-33---3-3-33---3-3-3----------------------------|
D#|--------------------------5-5-5---5---7-7-7--8-8-8-|
A#|---------------------------------------------------|
F |1-1-11---1-1-11---1-1-1---3-3-3---3---5-5-5--6-6-6-|
A#|---------------------------------------------------|

(1:00 - 1:06)

C |---------------------------|
G |---------------------------|
D#|---------------------------|
A#|0~--------0~---------------|
F |0~--1-----0~--1-----4-1----|
A#|0~----4-1-0~----4-1-----4--|

(1:06 - 1:19)

C |------------------------------------------------------------------|
G |------------------------------------------------------------------|
D#|------------------------------------------------------------------|
A#|------------------------------------------------------------------|
F |0--0--0---0-0-0-0--0--0-0--0--0-0--0--0---0-0-0-0--0--0--00-0-000-|
A#|1--1--1---1-1-1-1--1--1-1--1--1-1--1--1---1-1-1-1--1--1--00-0-000-|
   .  .  .   . . . .  .  . .  .  . .  .  .   . . . .  .  .  .. . ...

(1:19 - 1:33)

I'm not gonna bother tabbing this section because it's so easy,
just follow the pattern with 0 and then ring out at the end.
                             1

(1:33 - 1:51)

C |-----------------------------|
G |-----------------------------|
D#|-----------------------------|      once solo'd
A#|-----------------------------|    twice full band
F |-----------------------------|
A#|11-11-11---11111111-11-11-11-|
   .v .v .v   .......v .v .v .v


C |-----------------|
G |-----------------|
D#|-----------------|
A#|-----------------|
F |111-111-000-000--|
A#|111-111-000-000--|
   ... ... ... ...

C |----------------------------------|
G |----------------------------------|
D#|----------------------------------|    the bend only happens
A#|----------------------------------|   on the first repetition
F |----------------------------------|
A#|00-00-00---00000000-00-00-00--2b--|
   .v .v .v   .......v .v .v .v

(1:51 - 2:17)

C |--------------------------------------------------------|
G |--------------------------------------------------------|
D#|--------------------------------------------------------|
A#|--------------------------------------------------------|
F |8-8-8-88---8-8-8--88---8-8-8-8-8-8-88---8---8-8-8-8-8-8-|
A#|0-0-0-00---0-0-0--00---0-0-0-3-3-3-33---3---7-7-7-7-7-7-|
         ..          ..               ..

on the second and fourth repetition of the second chorus,
the last six strums change to:

C |------------|
G |------------|
D#|------------|
A#|------------|
F |8-8-8-8-8-8-|
A#|7-7-7-5-5-5-|

(2:17 - 2:27)

Strumming pattern for this section is real easy
so to save space I'll just give you the notes.

C |------------------------|
G |------------------------|
D#|10---------10-----------|
A#|8----0-7---8----0-7-0-5-|
F |8----0-7---8----0-7-0-5-|
A#|8----0-7---8----0-7-0-5-|
        .          .   .

(2:27 - 3:13)

Again, the progression on the beatdown is easy,
it just goes from single notes on the bottom string
to power chords, so I'll tab the first repetition
and then you can work it out from there.

C |--------------------------------------------------------------------------|
G |--------------------------------------------------------------------------|
D#|--------------------------------------------------------------------------|
A#|--------------------------------------------------------------------------|
F |--------------------------------------------------------------------------|
A#|10-10-10--9-9-9--5-5-5--1-1-1-1-1-1-1--0-0-0--6-6-6--3-3-3--5-5-5-5-5-5-5-|

The notes for the harmony at 3:01 are below,
and are played to the same strumming pattern as above.

C |------------------|
G |------------------|
D#|12-11-7-3---8-5-7-|
A#|------------------|
F |10-9--5-1---6-3-5-|
A#|----------0-------|

(3:13 - 3:16)

C |--------------------------------|
G |--------------------------------|
D#|--------------------------------|
A#|--------------------------------|
F |--------------------------------|
A#|00-00-00---00000000-00-00-00----|
   .v .v .v   .......v .v .v .v

(3:16 - end)

C |-----------------------------------------------|
G |---------------------4---4---4---4---4---------|
D#|---------------------7---7---7---7---7---------|
A#|-----------------------------------------2--3--|
F |-----------------------------------------2--3--|
A#|00-00-0-12>0-00-00-0---0---0---0---0---0-2--3--|
   .v .v .      .v .v .   .   .   .   .   .

C |--------------------------------|
G |--------------------------4---2-|
D#|--------------------------7---5-|
A#|--------------------------------|
F |--------------------------------|
A#|0000-00-00-0-12>0-00-00-0---0---|
   ...v .v .v .      .v .v .   .

fini.
Tap to rate this tab
# A B C D E F G H I J K L M N O P Q R S T U V W X Y Z