Guitaretab - guitar tabs
Song name
# A B C D E F G H I J K L M N O P Q R S T U V W X Y Z

Control Machete - De Perros Amores tab

------------------------------------|
------------------------------------|
--------------5--3--0--3--2--5--3---|x3(intro)
---5---3--5--3-----3--3--3--3-------|
--3---------3-----3--3--3--3--------|
-3---3---3--------------------------|

------------------------------------|
------------------------------------|
--------------5--3--0--3--2--5--3---|  x5
---5---3--5--3-----3--3--3--3-------|
--3---------3-----3--3--3--3--------|
-3---3---3--------------------------|

Cuantas (Si alguna vez)
---------|
---------|
---------|
--5----3-|  repeated threw out the small verse
---3-3---|
-3-------|

Continua repetitiva que constantemente termina
-------------------------------------|
-------------------------------------|
--------------5--3--0--3--2--5--3----|  Is played till next pre-chorus
---5---3--5--3-----3--3--3--3--------|
--3---------3-----3--3--3--3---------|
-3---3---3---------------------------|

Cuantas (Si alguna vez)
---------|
---------|
---------|
--5----3-|  chorus A
---3-3---|
-3-------|

-------------------------------------|
-------------------------------------|
--------------5--3--0--3--2--5--3----|  Is played till next pre-chorus
---5---3--5--3-----3--3--3--3--------|
--3---------3-----3--3--3--3---------|
-3---3---3---------------------------|


Si alguna vez
---------|
---------|
---------|
--5----3-|  before chorus
---3-3---|
-3-------|

Amanece el alma
-----------------------|
-----------------------|  ____
---------------     ---|
---3--5-3-2-3-2     ---|
--3------------     ---|
-3-------------     ---|
                     = Chorus B
atardece en ti       |
-----------------------|
---------------     ---|
---------------     ---|
---2-3-2-1-1---     ---|
--3------------     ---|
-3------------- ____---|
[ Tab from: http://www.guitaretab.com/c/control-machete/176714.html ]
Accion es en real voluntad
----3--------3-------3----|
--------------------------|
--------------------------| here song too know when this stops
--------------------------|
--------------------------|
--------------------------|

No existe ningun borrador magico
--------------------------------|
--------------------------------|
--------------------------------|
---3--6--5---3--6--5------------|
--3---------3-------------------|
-0---------0--------------------|

para borrar todos los errores cometidos
--------------------------------|
--------------------------------|
--------------------------------|
---1--3--4---1--3--4------------|
--1---------1-------------------|
-0---------0--------------------|

que pasaria si las flores solo se marchitaran?
--------------------------------|
--------------------------------|
--------------------------------|
---3--6--5---3--6--5------------|
--3---------3-------------------|
-0---------0--------------------|

o solo se quedaran como botones.
--------------------------------|
--------------------------------|
--------------------------------|
---1--3--4---1--3--4------------|
--1---------1-------------------|
-0---------0--------------------|

Duele la realidad duele
--------------------------------|
--------------------------------|
--------------------------------|
---3--6--5---3--6--5------------|
--3---------3-------------------|
-0---------0--------------------|

La fantasia solo se queda en los suenos
--------------------------------|
--------------------------------|
--------------------------------|
---1--3--4---1--3--4------------|
--1---------1-------------------|
-0---------0--------------------|

Que pasaria si nunca muero?
--------------------------------|
--------------------------------|
--------------------------------|
---3--6--5---3--6--5------------|
--3---------3-------------------|
-0---------0--------------------|

y no tuviera la oportunidad de nacer de nuevo.
--------------------------------|
--------------------------------|
--------------------------------|
---1--3--4---1--3--4------------|
--1---------1-------------------|
-0---------0--------------------|

Play Chorus B till end of the song
Related for De Perros Amores tab