Control The Chaos - I Walked With A Zombie tab

CONTROL THE CHAOS I WALKED WITH A ZOMBIE COVER BY WEDNESDAY 13 RHYTHM GUITAR
Index:
 
| /   slide up          | b   Bend           
| \   slide down        | pb  Pre-bend
| h   hammer-on         | br  Bend release
| p   pull-off          | pbr Pre-bend release
| ~   vibrato           | brb Bend release bend
| +   harmonic          | xr  mute ring   
| x   Mute note            

 Tuning C G C F A D


Intro
D|---------------------------|
A|---------------------------|
F|---------------------------|
C|---------------------------|
G|-0-0-4-0--------5-5-5-5\0--|
C|-0-0-4-0--------5-5-5-5\0--|
    
D|-------------------------|
A|-------------------------|
F|-------------------------|
C|-------------------------|
G|-0-0-4-0--------5-5-5-5--|
C|-0-0-4-0--------5-5-5-5--|
    

Chorus(X2)
D|----------------------------------------|
A|----------------------------------------|
F|----------------------------------------|
C|----------------------------------------|
G|-4--0--4--0--4--5--0--5--7--5--4--4--0--|
C|-4--0--4--0--4--5--0--5--7--5--4--4--0--|

Verse
D|----------------------------------------------------------------|
A|----------------------------------------------------------------|
F|----------------------------------------------------------------| X2
C|----------------------------------------------------------------|
G|-0-0-4-0-0--0-0-0-0-0-0-0-0-0-0--5-5-5-5--5-5-5-5-5-5--7-7-5-5--|
C|-0-0-4-0-0--0-0-0-0-0-0-0-0-0-0--5-5-5-5--5-5-5-5-5-5--7-7-5-5--| 
              x x x x x x x x x x           x x x x x x 

D|----------------------------------------------------------------|
A|----------------------------------------------------------------|
F|----------------------------------------------------------------| X2
C|----------------------------------------------------------------|
G|-0-0-4-0-0--0-0-0-0-0-0-0-0-0-0--5-5-5-5--5-5-5-5-5-5--7-7-5-5--|
C|-0-0-4-0-0--0-0-0-0-0-0-0-0-0-0--5-5-5-5--5-5-5-5-5-5--7-7-5-5--| 

Bridge
D|------------------------------------------------------------|
A|------------------------------------------------------------|
F|------------------------------------------------------------| X3
C|------------------------------------------------------------|
G|-7-7-7-7-7-7-7-7--5-5-5-5-5-5-5-5--0-0-4-0-0-4-0-0-4-0-0-4--|
C|-7-7-7-7-7-7-7-7--5-5-5-5-5-5-5-5--0-0-4-0-0-4-0-0-4-0-0-4--| 
                                     x x     x     x     x 
D|---------------------|
A|---------------------|
F|---------------------|
C|---------------------|
G|-7-7-7-7-7-7-7-7--5--|
C|-7-7-7-7-7-7-7-7--5--|


Break (She makes me do)
D|-------------------------------------|
A|-------------------------------------|
F|-------------------------------------|
C|-------------------------------------|
G|-5---------7--------5---------7------|
C|-5(X16)----7(X16----5(X16)----7(X9)--|


                                     
CHECK OUT CONTROL THE CHAOS AT 
http://www.facebook.com/ctcrocks
http://www.myspace.com/controlthechaos7744
http://www.reverbnation.com/controlthechaos
http://twitter.com/ControlTheChaos
http://profile.ultimate-guitar.com/controlthechaos/
Tap to rate this tab
 
# A B C D E F G H I J K L M N O P Q R S T U V W X Y Z