Control The Chaos - Rise Again tab

CONTROL THE CHAOS "RISE AGAIN" Rhythm GUITAR  
Index:
 
| /   slide up          | b   Bend           
| \   slide down        | pb  Pre-bend
| h   hammer-on         | br  Bend release
| p   pull-off          | pbr Pre-bend release
| ~   vibrato           | brb Bend release bend
| +   harmonic          | xr  mute ring   
| x   Mute note            

 Tuning C G C F A D



Intro
D|--------------------------------------------|
A|--------------------------------------------|
F|--------------------------------------------|
C|-0--0-0-7-7-7-7--5-7--77--------10-----5-5--|
G|-0--0-0-8-8-8-8--7-8--88--8-8-8-8--3-3-3-3--|
C|-0--0-0-0-0-0-0--0-0--00--8-8-8-8--3-3-3-3--|

D|--------------------------------------|
A|--------------------------------------|
F|--------------------------------------|
C|-0--0-0-7-7-7-7--5-7--77--------10----|
G|-0--0-0-8-8-8-8--7-8--88--8-8-8-8--3--|
C|-0--0-0-0-0-0-0--0-0--00--8-8-8-8--3--|



Chorus(X4)
D|-----------------------------------------------------------------|
A|-----------------------------------------------------------------|
F|---------10-10-10-10-9-10--10-10---------------------------------|
C|-----------------------------------------10-8-----------7-5------|
G|-0--0-0--8--8--8--8--7-8---8--8----8-8-8------5--5--5-5-----8-7--|
C|-0--0-0----------------------------8-8-8------5--5--5-5----------| 
      x x                              x x            x x 

Verse Intro
D|-----------------------------------------|
A|-----------------------------------------|
F|-----------------------------------------|
C|------------------------------5h7p5------|
G|-0--0-0--0--0-0--0--0-0-0-0-0-------8-7--|
C|-0--0-0--0--0-0--0--0-0-0-0-0------------|
      x x     x x     x x x x x

Verse(X4)
D|--------------------------------------------------------------------------|
A|--------------------------------------------------------------------------|
F|--------------------------------------------------------------------------|
C|---------------------------------------------------------8-------10----10-|
G|-0--0-0--0--0-0-0-5-7-----7-3-----3-5-----5-------------------------------|
C|-0--0-0--0--0-0-0-----0-0-----0-0-----0-0---0-0-0-0--8-8---10-10----10----|
      x x     x x x     x x     x x     x x   x x x x  x x   x  x     x

D|---------------------------------------------------------------------|
A|---------------------------------------------------------------------|
F|---------------------------------------------------------------------|
C|----------------------------------------------------7h8-5h7-3h5-5h7--|
G|-0--0-0--0--0-0-0-5-7-----7-3-----3-5-----5--------------------------|
C|-0--0-0--0--0-0-0-----0-0-----0-0-----0-0---0-0-0-0------------------|
      x x     x x x     x x     x x     x x   x x x x 

Bridge 1(X3)
D|--------------------------------------------------------|
A|--------------------------------------------------------|
F|--------------------------------------------------------|
C|--------------------------------------------------------|
G|-12-12-12-12--12-12--12-12-12-12--12-12--10-10-10-10----|
C|-8--8--8--8---8--8---8--8--8--8---8--8---8--8--8--8-----|
                x  x                x  x

D|----------------------------------------------------|
A|----------------------------------------------------|
F|----------------------------------------------------|
C|----------------------------------------------------|
G|-12-12-12-12--12-12--12-12-12-12--12-12--12-10-8-7--|
C|-8--8--8--8---8--8---8--8--8--8---8--8--------------|
                x  x                x  x

D|--------------------------------------------------------------------------|
A|--------------------------------------------------------------------------|
F|--------------------------------------------------------------------------|
C|--------------------------------------------------------------------------|
G|-8-8-8-8--8-8--8-8-8-8--0-0--3/7-77--8-8-8-8--8-8--8-8-8-8--8-8--8/10-1010|
C|-0-0-0-0--0-0--0-0-0-0--0-0----------0-0-0-0--0-0--0-0-0-0--0-0-----------|
            x x           x x                   x x           x x

Break down
D|----------------------------------------------------------|
A|----------------------------------------------------------|
F|----------------------------------------------------------|
C|----------------------------------------------------------|
G|-0-0-0-0---0-0-0-0---0-0-0-0---0-0-0-0---0-0-0-0-0-0-0-0--|
C|-0-0-0-0---0-0-0-0---0-0-0-0---0-0-0-0---0-0-0-0-0-0-0-0--|
   x x x x   x x x x   x x x x   x x x x   x x x x x x x x 

D|------------------------------------------------------|
A|------------------------------------------------------|
F|------------------------------------------------------|
C|------------------------------------------------------|
G|-0-0-0-0---0-0-0-0---0-0-0-0---0-0-0-0---0-0-0-0-0-0--|
C|-0-0-0-0---0-0-0-0---0-0-0-0---0-0-0-0---0-0-0-0-0-0--|
   x x x x   x x x x   x x x x   x x x x   x x x x x xr

D|----------------------------------------------------------|
A|----------------------------------------------------------|
F|----------------------------------------------------------| X4
C|----------------------------------------------------------|
G|-0-0-0-0---0-0-0-0---0-0-0-0---0-0-0-0---0-0-0-0-0-0-0-0--|
C|-0-0-0-0---0-0-0-0---0-0-0-0---0-0-0-0---0-0-0-0-0-0-0-0--| 
   xr-----   xr-----   xr-----   xr-----   xr-------------

Break chord back into Chorus
D|---------|
A|---------|
F|---------|
C|---10----|
G|---8-----|
C|---8-----|


Break before solo 
D|------------------------------------|
A|------------------------------------|
F|------------------------------------|
C|-7-------9-------10-------12--------|
G|--(X16)---(X16)----(X16)----(X16)---|
C|-5-------7-------8--------10--------|


Rhythm solo(X2)
D|----------------------------------|
A|----------------------------------|
F|----------------------------------|
C|----------------------------------|
G|-77--7--77--7-7-7--77--7-7--7777--|
C|-55--5--55--5-5-5--55--5-5--5555--|
   xx     xx    x    xx    x

D|---------------------------------------------------|
A|---------------------------------------------------|
F|---------------------------------------------------|
C|---------------------------------------------------|
G|-1010--10--1010--10-10-10--1010--10--10--10101010--|
C|-8-8---8---8-8---8--8--8---8-8---8---8---8-8-8-8---|
   x x       x x      x      x x       x

D|----------------------------------|
A|----------------------------------|
F|----------------------------------|
C|----------------------------------|
G|-55--5--55--5-5-5--55--5-5--5555--|
C|-33--3--33--3-3-3--33--3-3--3333--|
   xx     xx    x    xx    x

Bridge 2(X4)
D|------------------------------------------------------------------------|
A|------------------------------------------------------------------------|
F|------------------------------------------------------------------------|
C|--------------------------------------------------------------5h7p5-----|
G|-----8---10-12---8--8--8-8--8-10-12-----8---10-12---0--0--0-0-------8-7-|
C|-8-8---8-------0-8--8--8-8----------8-8---8-------0-0--0--0-0-----------|
   x x   x       x       x x          x x   x       x       x x
Outro(X2)
D|------------------------------------------------------------|
A|------------------------------------------------------------|
F|------------------------------------------------------------|
C|------------------------------------------------------------|
G|------------------------------------------------------------|
C|-0-0-7-5-0-0-7-5-0-0-8-10-8-10-0-0-7-5-0-0-8-7-0-0-5-7-5-3--|
   x x     x x     x x           x x     x x     x x    

CHECK OUT CONTROL THE CHAOS AT 
http://www.facebook.com/ctcrocks
http://www.myspace.com/controlthechaos7744
http://www.reverbnation.com/controlthechaos
http://twitter.com/ControlTheChaos
Tap to rate this tab
 
# A B C D E F G H I J K L M N O P Q R S T U V W X Y Z