Song name
# A B C D E F G H I J K L M N O P Q R S T U V W X Y Z

Control The Chaos - Take Authority tab

CONTROL THE CHAOS "TAKE AUTHORITY" RHYTHM GUITAR
Index:

| /   slide up          | b   Bend
| \   slide down        | pb  Pre-bend
| h   hammer-on         | br  Bend release
| p   pull-off          | pbr Pre-bend release
| ~   vibrato           | brb Bend release bend
| +   harmonic          | xr  mute ring
| x   Mute note

 Tuning C G C F A D
D|-------------------------------------------|
A|-------------------------------------------|
F|-------------------------------------------|
C|-------------------------------------------|
G|-------------------------------------------|
C|-------------------------------------------|



Intro
D|------------------------------------------------------------------|
A|------------------------------------------------------------------|
F|------------------------------------------------------------------| X2
C|-3-----3---5---7---3-------------3-----3--------5-----5---3---5---|
G|-5-----5---7---8---5-------------1-----1---3-2--3-----3---1---3---|
C|---0-0---0---0---0---0-0-000-0-0---0-0---0-3-2----0-0---0---0-----|
     x x   x   x   x   x x xxx x x   x x   x        x x   x   x

D|-------------------------------------------------------------------|
A|-------------------------------------------------------------------|
F|-------------------------------------------------------------------| X2
C|-3-----3---5---7---3---------------3-----3--------5-----5---3---5--|
G|-5-----5---7---8---5---------------1-----1---3-2--3-----3---1---3--|
C|---0-0---0---0---0---0-0-0-0-0-0-0---0-0---0-3-2----0-0---0---0----|
     x x   x   x   x   x x x x x x x   x x   x        x x   x   x

Verse
D|---------------------------------|
A|---------------------------------|
F|---------------------------------|
C|---------7-----------5-----8-----|
G|---------5(X11)------5(X4)-5(X8)-|
C|-000-0-0--------0--0-------------|
   xxx x x        x  x

D|---------------------------------|
A|---------------------------------|
F|---------------------------------|X3
C|---------7-----------5-----8-----|
G|---------5(X11)------5(X4)-5(X4)-|
C|-0-0-0-0--------0--0-------------|
   x x x x        x  x

Chorus
D|-----------------------|      D|-----------------------|
A|-----------------------|      A|-----------------------|
F|-----------------------|X2    F|-----------------------|X2
C|-12------12-----14-----|      C|-12------12-----14-----|
G|-0(X16)--8(X8)--10(X8)-|      G|-0(X14)--8(X8)--10(X8)-|
C|-0-------8------10-----|      C|-0-------8------10-----|
After 2nd loop pause for 1 click

Bridge(X2)
D|-----------------------------------------------------------------------|
A|-----------------------------------------------------------------------|
F|-----------------------------------------------------------------------|
C|-----------------------------------------------------------8-7-5-------|
G|-----5-----5---5-----5-----------------------5---5-----5---------8-7-5-|
C|-0-0---0-0---0---0-0---0--8-7-5-7-8-0--0-0-0---0---0-0---0-------------|
   x x   x x   x   x x   x               x x x   x   x x   x

D|----------------------------------------------------------------------|
A|---------------------ending riff back into verse->-C|--8-7-5----------|
F|--------------------------after second loop------>-G|-------8---------|
C|------------------------------------------------->-C|-0---------------|
G|-------5---5-----5-----------------------5---5-----5----------12\-----|
C|-0-0-0---0---0-0---0--8-7-5-7-8-0--0-0-0---0---0-0---0-0-0-0--12\-----|
   x x x   x x   x   x               x x x   x   x x   x x x x

Break into solo rhythm (played after second chorus)
D|------------------------------|
A|------------------------------|
F|------------------------------|X2
C|------------------------------|
G|-0------8------3------3---5---|
C|-0------8------3------5---5---|

D|----------------------------------------------------------------------|
A|----------------------------------------------------------------------|
F|----------------------------------------------------------------------|X2
C|---------------------------------3--3-3-3---------5--5-5-5------------|
G|-0---0-0-0-0-0-0---0-0-0--3-2-0--1--1-1-1--3-2-0--3--3-3-3--2h3--3-3--|
C|-0---0-0-0-0-0-0---0-0-0--3-2-0------------3-2-0------------2h3--3-3--|

D|-----------------------------------------------------|
A|-----------------------------------------------------|
F|-----------------------------------------------------|X2
C|-3--3-3-3-3-3--5--5-5-5-5-5--7--7------5------8------|
G|-1--1-1-1-1-1--3--3-3-3-3-3--5--5(X6)--5(X4)--5(X4)--|
C|-----------------------------------------------------|
Go back into bridge(only play second loop)
Then pause for 10 clicks, go into chorus, then play intro as the
outro to the song

*THIS SONG HAS NOT YET BEEN RECORDED, I WILL BE POSTING UP VIDEOS ON YOUTUBE TO SHOW THE 
STRUCTURE OF THE RHYTHM PART TO THIS SONG.
HERE IS THE LINK TO OUR YOUTUBE CHANNEL http://www.youtube.com/CTCrocks


CHECK OUT CONTROL THE CHAOS AT
http://www.facebook.com/ctcrocks
http://www.myspace.com/controlthechaos7744
http://www.reverbnation.com/controlthechaos
http://twitter.com/ControlTheChaos
Tap to rate this tab
 
# A B C D E F G H I J K L M N O P Q R S T U V W X Y Z