Song name
# A B C D E F G H I J K L M N O P Q R S T U V W X Y Z

Converge - Vengeance tab

Help us improve GuitareTab! Take a short survey!
CGCFAD

Intro

d|-----------------------------------------------|
A|-12-----11----10----4slide up------------------|
F|-----------------------------------------------|
C|--9------8-----7----1slide up------------------|
G|-----------------------------------------------|
C|-----------------------------------------------|

Verse 1 x4
Sounds correct, but I don't have a cable right now for the amp, so I'm playing it acoustic
d|-----------------------------------------------|
A|-----------------------------------------------|
F|-----------------------------------------------|
C|-----------------------------------------------|
G|-9---------------------------------------------|
C|---10-8-10-8888888888888888--------------------|
          PM -----------------

Chorus/type/thing x2
d|-----------------------------------------------|
A|-----------------------------------------------|
F|-----------------------------------------------|
C|-7-7--12-12--8--8--5-5--3-3--2-2---------------|
G|-x-x---x--x--x--x--x-x--x-x--x-x---------------|
C|-7-7--12-12--8--8--5-5--3-3--2-2---------------|

Verse 2 
d|-----------------------------------------------|
A|-12-----------------11-------------------------|
F|-----------------------------------------------|
C|--9------------------8-------------------------|
G|--------9---------------9----------------------|
C|----------10-8-10---------10-8-10--------------|

d|-----------------------------------------------|
A|-10------------------5 slide up----------------|
F|-----------------------------------------------|
C|--8------------------2-slide up----------------|
G|--------9------------------------9-------------|
C|----------10-8-10------------------10-8-10-----|

Verse 3
(Repeat Verse 1)

i am vengeance
built for 

   WAR
d|-----------------------------------------------|
A|-----------------------------------------------|
F|-----------------------------------------------|
C|-----------------------------------------------|
G|-------------------------------9---------------|
C|-22222222232222222222222222222---10-8-10-------|







Related for Vengeance tab