Song name
# A B C D E F G H I J K L M N O P Q R S T U V W X Y Z

Converge - Worms Will Feed tab

-------------------------------------------------------------------------------
Worms Will Feed -CONVERGE
-------------------------------------------------------------------------------
Tabbed by:madma7x
Email:madmax@gmx.at

Tuning:drop c

Intro riff

e|----------0~-0-0~------------------0--0~------------------------------------------|
B|----------6~-3-2~------------------3--2~---smear bend-----------------------------|
G|-----3-0--------------------3-0---------------------------------------------------|
D|----------------------------------------------------------------------------------|
A|5-5--------------------5-5--------------------------------------------------------|
E|5-5--------------------5-5--------------------------------------------------------|

e|----------0~-0-0~---------------------------------------------------------------|
B|----------6~-3-2~---0-0----0-0--------------------------------------------------|
G|-----3-0------------2-3----3-2---22222222~--------------------------------------|
D|---------------------------------66666666~--------------------------------------|
A|5-5-----------------------------------------------------------------------------|
E|5-5-----------------------------------------------------------------------------|
                                   xxxxxxxx


this riff is a main part of the song    im still working on the other parts!!  Please rate!

| /  slide up
| \  slide down
| h  hammer-on
| p  pull-off
| ~  vibrato
| +  harmonic
| x  Mute note
===============================================================================
Tap to rate this tab
 
# A B C D E F G H I J K L M N O P Q R S T U V W X Y Z