Song name
# A B C D E F G H I J K L M N O P Q R S T U V W X Y Z

Converge - Cruel Bloom tab

-------------------------------------------------------------------------------
			     Converge - Cruel Bloom
-------------------------------------------------------------------------------
Tabbed by: Rawwwrr!!
Email: kostarew@olympus.ru
Tuning: Half-step down

Intro/verse:

D#|-----2--2-----------2--2---0---2---2--2-------9---8---4-------|
A#|-----2--2-----------2--2---0---2---2--2-------10--9---5-------|
F#|-----2--2-----------2--2---0---2---2--2-------9---8---4-------|
C#|-4---4--4-----------4--4---2---4---4--4---4---11--10--6-------|
G#|-4---4--4-----------4--4---2---4---4--4---4---9---8---4-------|
D#|-2---2--2---5---2---2--2---0---2---2--2---2---9---8---4-------|


D#|-----2--2-----------2--2---0---2---2--2-----------------------|
A#|-----2--2-----------2--2---0---2---2--2-----------------------|
F#|-----2--2-----------2--2---0---2---2--2-----------------------|
C#|-4---4--4-----------4--4---2---4---4--4-----------------------|
G#|-4---4--4-----------4--4---2---4---4--4-----------------------|
D#|-2---2--2---5---2---2--2---0---2---2--2----5---2--------------|

Voracious children and wolves
Sharpen their teeth on our bones
Carrion feeds the wretched
Vacant eyes peer through the hole
Beggars and thieves bring down a common enemy
While pawnshop kings and corner queens
All hawk their souls for gold

Chorus:

D#|--9----9--9--9----7----7--7--7----9----9--9--9----4----4--4--4---|
A#|--9----9--9--9----8----8--8--8----10---10-10-10---6----6--6--6---|
F#|--9----9--9--9----9----9--9--9----9----9--9--9----4----4--4--4---|
C#|--11---11-11-11---9----9--9--9----11---11-11-11---5----5--5--5---|
G#|--11---11-11-11---7----7--7--7----9----9--9--9----4----4--4--4---|
D#|--9----9--9--9----7----7--7--7----9----9--9--9----4----4--4--4---|


D#|-----7----7--7--7----9----9--9--9----2----2--2--2----7--9---|
A#|-----8----8--8--8----10---10-10-10---2----2--2--2----8--10--|
F#|-----9----9--9--9----9----9--9--9----2----2--2--2----9--9---|
C#|-----9----9--9--9----11---11-11-11---4----4--4--4----9--11--|
G#|-----7----7--7--7----9----9--9--9----4----4--4--4----7--9---|
D#|-----7----7--7--7----9----9--9--9----2----2--2--2----7--9---|

Chorus:

Lifelong victims pound and claw at the ground
Searching for any way out of their skin
Writhe in the cruel bloom

Trying to find beauty in flesh torn from me
Trying so hard not to lose you
In cobwebs and empty hearts
Lifelong victims pound and claw at the ground
Searching for a way out of their skin
Writhe in the cruel bloom
Witness the ghostlike shades of ourselves
Searching for any way out of our skin
Writhe in the cruel bloom

Distortion part:

D#|------------------------------------------------7-/-9--9--9--9---|
A#|------------------------------------------------6-/-10-10-10-10--|
F#|------------------------------------------------7-/-9--9--9--9---|
C#|-4----4--6--7--9----11-9--7--4---4---2--4---4---9-/-11-11-11-11--|
G#|-4----4--6--7--9----11-9--7--4---4---2--4---4---7-/-9--9--9--9---|
D#|-2----2--4--5--7----9--7--5--2---2---0--2---2---7-/-9--9--9--9---|

Suffer no fools they will not have their day
Your broken wings drag us down into the shadows
There's no room for foul soil on this good earth
Tap to rate this tab
 
# A B C D E F G H I J K L M N O P Q R S T U V W X Y Z