Song name
# A B C D E F G H I J K L M N O P Q R S T U V W X Y Z

Converge - Tender Abuse tab

----------------------------------------------------------------------------
                        Tender Abuse - Converge
----------------------------------------------------------------------------
Tabbed by: millarso (Jake Miller)
E-mail: millarso2.0@gmail.com

Tuning: Drop C

SECTION 1
D|----------------------------------------------|
A|----------------------------------------------|
F|----------------------------------------------|
C|-4-3------4-3-1------4-3-1-3------4-3-1-3-1-0-|
G|-4-3------4-3-1------4-3-1-3------4-3-1-3-1-0-|
C|-4-3-0000-4-3-1-0000-4-3-1-3-0000-4-3-1-3-1-0-|
       ....       ....         ....

SECTION 2
D|-----------------------------------------------------------------------------------------|
A|-----------------------------------------------------------------------------------------|
F|------------------8-8-8-8-8-8-8-8----------------------------------------------7-7-7-7-7-|
C|-4-3------4-3-1-3-0-0-0-0-0-0-0-0-4-3------4-3-1------4-3-1-3------4-3-1-3-1-0-x-x-x-x-x-|
G|-4-3------4-3-1-3-6-6-6-6-6-6-6-6-4-3------4-3-1------4-3-1-3------4-3-1-3-1-0-5-5-5-5-5-|
C|-4-3-0000-4-3-1-3-----------------4-3-0000-4-3-1-0000-4-3-1-3-0000-4-3-1-3-1-0-----------|
       ....                             ....       ....         ....
 
D|----------------------------------|
A|----------------------------------|
F|------------------8-8-8-8-8-8-8-7-|
C|-4-3------4-3-1-3-x-x-x-x-x-x-x-x-|
G|-4-3------4-3-1-3-6-6-6-6-6-6-6-5-|
C|-4-3-0000-4-3-1-3-----------------|
       ....

SECTION 3
D|----------------------------------------------------------------------(bend)---|
A|------------------------------666--666--777--777--777--777--444--444-444444444-|
F|-77--777--777--777--777--777--777--777--777--777--777--777--777--777-777777777-|
C|-------------------------------------------------------------------------------|
G|-------------------------------------------------------------------------------|
C|-------------------------------------------------------------------------------|

Alternate Method (doesn't sound as good, but way easier)
D|------------------------------------------------------------------------------------|
A|---------------------------------------------------------------------------(bend)---|
F|-77-777-777-777-777-777-101010-101010-111111-111111-111111-111111-888-888-888888888-|
C|-------------------------0-0-0--0-0-0--0-0-0--0-0-0--0-0-0--0-0-0-000-000-000000000-|
G|------------------------------------------------------------------------------------|
C|------------------------------------------------------------------------------------|
NOTE: The bends written in above indicates that you should bend the 4 (or 8) 
upward while strumming.
NOTE 2: Add a little vibrato to the lone 7s to give it a more fitting sound

SECTION 4 (nearly same as SECTION 2, with different order)
D|-----------------------------------------------------------------------------------------|
A|-----------------------------------------------------------------------------------------|
F|----------------------------------------------7-7-7-7-7------------------8-8-8-8-8-8-8-8-|
C|-4-3------4-3-1------4-3-1-3------4-3-1-3-1-0-x-x-x-x-x-4-3------4-3-1-3-0-0-0-0-0-0-0-0-|
G|-4-3------4-3-1------4-3-1-3------4-3-1-3-1-0-5-5-5-5-5-4-3------4-3-1-3-6-6-6-6-6-6-6-6-|
C|-4-3-0000-4-3-1-0000-4-3-1-3-0000-4-3-1-3-1-0-----------4-3-0000-4-3-1-3-----------------|
       ....       ....         ....                           ....

D|-----------------------------------------------------------------------------------------|
A|-----------------------------------------------------------------------------------------|
F|----------------------------------------------7-7-7-7-7------------------8-8-8-8-8-8-8-7-|
C|-4-3------4-3-1------4-3-1-3------4-3-1-3-1-0-x-x-x-x-x-4-3------4-3-1-3-x-x-x-x-x-x-x-x-|
G|-4-3------4-3-1------4-3-1-3------4-3-1-3-1-0-5-5-5-5-5-4-3------4-3-1-3-6-6-6-6-6-6-6-5-|
C|-4-3-0000-4-3-1-0000-4-3-1-3-0000-4-3-1-3-1-0-----------4-3-0000-4-3-1-3-----------------|
       ....       ....         ....                           ....

REPEAT SECTION 3

Transition
D|-----------------------------|
A|-----------------------------|
F|-----------------------------|
C|-4-3-1-3-0------\\\\\\\\\\\\-|
G|-4-3-1-3-0------\pick-slide\-|
C|-4-3-1-3-0------\\\\\\\\\\\\-|

SECTION 5
D|-----------------------------------------------------|
A|----------------------------------------7-7-6-4-6--\-|
F|-----7-7-7\-------7-7-7\---------7-7\---7-7-7-7-7--\-|
C|-0---8-8-8\---0---8-8-8\---0--0--8-8\----------------|x2
G|-0------------0------------0--0----------------------|
C|-0------------0------------0--0----------------------|

Alternate Method (doesn't sound as good, but easier)
D|---------------------------------------------------------|
A|---------------------------------------------------------|
F|-----7-7-7\-------7-7-7\---------7-7\---11-11-10-8-10--\-|
C|-0---8-8-8\---0---8-8-8\---0--0--8-8\----0--0--0-0--0--\-|x2
G|-0------------0------------0--0--------------------------|
C|-0------------0------------0--0--------------------------|

SECTION 6
D|-------------------------------------------------------|
A|-------------------------------------------------------|
F|-------------------------------------------------------|
C|-4-3-----4-3-1-----4-3-1-3-----4-3-1-3-1-0-------------|
G|-4-3-0-0-4-3-1-0-0-4-3-1-3-0-0-4-3-1-3-1-0-0-0-0-0-0-0-|
C|-4-3-0-0-4-3-1-0-0-4-3-1-3-0-0-4-3-1-3-1-0-0-0-0-0-0-0-|
       . .       . .         . .             . . . . . .

D|-------------------------------------------------------|
A|-------------------------------------------------------|
F|-------------------------------------------------------|
C|-4-3-----4-3-1-----4-3-1-3-----4-3-1-3-1-0-----------0-|
G|-4-3-0-0-4-3-1-0-0-4-3-1-3-0-0-4-3-1-3-1-0-0-0-0-0-0-0-|
C|-4-3-0-0-4-3-1-0-0-4-3-1-3-0-0-4-3-1-3-1-0-0-0-0-0-0-0-|
       . .       . .         . .             . . . . .

This one can be tough to nail down rhythmically, and the tremolo picking in between
power chords can be tough because it is so fast, but I'm sure you can handle it.
Please rate & comment.
Thanks,
millarso

************************************

| /   slide up
| \   slide down
| h   hammer-on
| p   pull-off
| ~   vibrato
| +   harmonic
| x   Mute note
| b   Bend
| pb  Pre-bend
| br  Bend release
| pbr Pre-bend release
| brb Bend release bend

************************************
Tap to rate this tab
 
# A B C D E F G H I J K L M N O P Q R S T U V W X Y Z