Guitaretab - guitar tabs
Song name
# A B C D E F G H I J K L M N O P Q R S T U V W X Y Z

Converge - Concubine tab

CONCUBINE - Converge from the album Jane Doe
Tuning: C

 D|----------------------------|----------------------|-----------------------------------------------------------|
G#|----------------------(x2)--|----------------------|-----------------------------------------------------------|
 F|----------------------------|----------------------|-----------------------------------------------------------|
 C|-4-5-4-5-4-5-4-5-4-7--------|-4-5-4-5-4-5-4-5-4/5--|-0-0-0-0--5-5-5-5-5---0-0-0-0--5-5-5-5---0-0-0-0--5-5-5-5--|
 G|----------------------------|----------------------|-0-0-0-0--------------0-0-0-0------------0-0-0-0-----------|
 C|----------------------------|----------------------|-0-0-0-0--------------0-0-0-0------------0-0-0-0-----------|

 D|--------------------------|------------------------------------------------------------------------------------|
G#|--------------------------|--------------------------------------------------------------------0-1-2-3---(x2)--|
 F|--------------------------|-------------------------------------------------------3----0-1-2-3-----------------|
 C|------------------6-5-3---|-0-0-0-0-0-0-0--1---0-0-0-0-0-0-0--1-1---0-0-0-0-0-0-0------------------------------|
 G|-------3-6-0------6-5-3---|-0-0-0-0-0-0-0--1---0-0-0-0-0-0-0--1-1---0-0-0-0-0-0-0------------------------------|
 C|-0-3-6-------3-5--6-5-3---|-0-0-0-0-0-0-0--1---0-0-0-0-0-0-0--1-1---0-0-0-0-0-0-0------------------------------|
[ Tab from: http://www.guitaretab.com/c/converge/51870.html ]
 D|-------------------|-------------------------------------------------|-------------------------|
G#|-------------------|-------------------------------------------(x3)--|-------------------------|
 F|-------------------|-------------------------------------------------|-------------------------|
 C|-------------------|--1-3--x(7)-0-0-0--x(7)-0-0-0--x(7)-0-0-0--------|--------------------1-3--|
 G|--------3-6-0------|--1-3--x(5)-0-0-0--x(5)-0-0-0--x(5)-0-0-0--------|--------3-6-0-------1-3--|
 C|--0-3-6-------3-5--|--1-3-------0-0-0-------0-0-0-------0-0-0--------|--0-3-6--------3-5--1-3--|

 D|-------------------------------------------------|------------------------------|
G#|-------------------------------------------(x3)--|------------------------------|
 F|-------------------------------------------------|------------------------------|
 C|--1-3--x(7)-0-0-0--x(7)-0-0-0--x(7)-0-0-0--------|--------------------1-3--1-3--|
 G|--1-3--x(5)-0-0-0--x(5)-0-0-0--x(5)-0-0-0--------|--------3-6-0-------1-3--1-3--|
 C|--1-3-------0-0-0-------0-0-0-------0-0-0--------|--0-3-6--------3-5--1-3--1-3--|

 D|--------------------------------------------|-----------------------------------------------------------------|
G#|--------------------------------------------|---------------------------------------------------------0-1-2-3-|
 F|--------------------------------------------|-------------------------------------------------0-1-2-3---------|
 C|-0-1--1-3--3-4--4-3--0-1--1-3--3-4--3-3-3-3--|--0-0-0-0-0-0-0--1--0-0-0-0-0-0-0--1-1--0-0-0-0-----------------|
 G|-0-1--1-3--3-4--4-3--0-1--1-3--3-4--3-3-3-3--|--0-0-0-0-0-0-0--1--0-0-0-0-0-0-0--1-1--0-0-0-0-----------------|
 C|-0-1--1-3--3-4--4-3--0-1--1-3--3-4--3-3-3-3--|--0-0-0-0-0-0-0--1--0-0-0-0-0-0-0--1-1--0-0-0-0-----------------|

 D|-------------------------------------------------------------------------||
G#|--------------------------------------------------(6)--------------------||
 F|-------------------------------------------------------------------------||
 C|---------------3--3--3--3----0-1--1-3--3-4--4-3----3---------------------||
 G|--------3-6-0--3--3--3--3----0-1--1-3--3-4--4-3--------------------------||
 C|--0-3-6--------3--3--3--3/---0-1--1-3--3-4--4-3--------------------------||
Related for Concubine tab