Song name
# A B C D E F G H I J K L M N O P Q R S T U V W X Y Z

Converge - Thaw tab

THAW            			                       DROP C


------------------------------------------------------------------------|
------------------------------------------------------------------------|
------------------------------------------------------------------------|
---5---5-6-5--------------------5---5-6-5-------------------------------|
-------------6-7-7/8-5--3--4-5------------6-7-7/8-5-----3-4-5---9-10-11-|
-6----------------------2--3-4-6------------------------2-3-4---8-9--10-|


--------6----------------------------8---7--6--5--4---------------------|
-------------7-----9-----10---------------------------------------------|
-----8---------5/7---7/8-------7----------------------------------------|
--7---------------------------------------------------------------------|
------------------------------------------------------------------------|
------------------------------------------------------------------------|

------------------------------------------------------------------------|
------------------------------------------------------------------------|
------------------------------------------------------------------------|
-0--0--6--0--0---5/6\5--0--0--6--0--0--0--0--6--0--0---5/6\5--0--0--6---|
-0--0--6--0--0---5/6\5--0--0--6--0--0--0--0--6--0--0---5/6\5--0--0--6---|
-0--0--6--0--0---5/6\5--0--0-----0--0--0--0--6--0--0---5/6\5--0--0------|

------------------------------------------------------------------------|
------------------------------------------------------------------------|
------------------------------------------------------------------------|
-6--0--0--5/6\5--0--0--6--0--0--0--0--6--0--0--5/6\5--4--3--2--1--------|
-6--0--0--5/6\5--0--0--6--0--0--0--0--6--0--0--5/6\5--4--3--2--1--------|
-6--0--0--5/6\5--0--0-----0--0--0--0--6--0--0--5/6\5--4--3--2--1--------|

------------------------------------------------------------------------|
------------------------------------------------------------------------|
------------------------------------------------------------------------|
-0--0--6--0--0---5/6\5--0--0--6--0--0--0--0--6--0--0---5/6\5--0--0--6---|
-0--0--6--0--0---5/6\5--0--0--6--0--0--0--0--6--0--0---5/6\5--0--0--6---|
-0--0--6--0--0---5/6\5--0--0-----0--0--0--0--6--0--0---5/6\5--0--0------|

------------------------------------------------------------------------|
------------------------------------------------------------------------|
------------------------------------------------------------------------|
-6--5--0--0--6--0--0--0--0--6--0--0--6--5--4--3--2--1-------------------|
-6--5--0--0--6--0--0--0--0--6--0--0--6--5--4--3--2--1-------------------|
-6--5--0--0-----0--0--0--0--6--0--0--6--5--4--3--2--1-------------------|

------------------------------------------------------------------------|
-------8--------------10------------------------------------------------|
------------------------------------------------------------------------|
------------------------------------------------------------------------|
------------------------------------------------------------------------|
------------------------------------------------------------------------|

------------------------------------------------------------------------|
------------------------------------------------------------------------|
--10---9----------------------------------------------------------------|
--0----0----11---3---6-0-6-9--------------------------------------------|
--0----0----8----3---6-0-6-9--------------------------------------------|
--0----0----8----3---6-0-6-9--------------------------------------------|

------------------------------------------------------------------------|
---------9-10-9--------------------------------0------------------------|
---10-9----------9-8--------8-9-8-----------8------10--13---------------|
---------------------9-8----------9-10----------------------------------|
-------------------------10------------10---7------9--------------------|
------------------------------------------------------------------------|
Tap to rate this tab
# A B C D E F G H I J K L M N O P Q R S T U V W X Y Z