Guitaretab - guitar tabs
Song name
# A B C D E F G H I J K L M N O P Q R S T U V W X Y Z

Converge - Eagles Become Vultures tab

-----------------------------------------------------------------------------
			     EAGLES BECOME VULTURES - Converge
-----------------------------------------------------------------------------
Tabbed by:outlawman1277	
Email:outlawman1277@aol.com

Tuning: (low to high) C,G,C,F,A,D 
D|----------------------------------------------|
A|----------------------------------------------|
F|----------------------------------8-8-8-8-8-8-|
C|-0--2--0-2-0--2--0-2-0--2--0-2-0--x-x-x-x-x-x-| x4
G|-0--2--0-2-0--2--0-2-0--2--0-2-0--6-6-6-6-6-6-|
C|-0--2--0-2-0--2--0-2-0--2--0-2-0--------------| 
   .     .   .     .   .     .   .  

D|------------|-----------|-----------|----------|
A|------------|-----------|-----------|-------6b-|
F|------------|-----------|-----------|-------6b-|
C|-6-4-5-6--5-|6-4-5-6--5-|6-4-5-6--5-|6-4-5--6b-| x3
G|-6-4-5-6--5-|6-4-5-6--5-|6-4-5-6--5-|6-4-5-----|
C|-6-4-5-6--5-|6-4-5-6--5-|6-4-5-6--5-|6-4-5-----| 
                                           .

D|------|--------|
A|------|--------|
F|------|--------|
C|-6-5~-|-6-5-4~-| x2 
G|-6-5~-|-6-5-4~-|
C|-6-5~-|-6-5-4~-|

D|--------------|-----------|-----------|----------|
A|--------------|-----------|-----------|-------6b-|
F|--------------|-----------|-----------|-------6b-|
C|//-6-4-5-6--5-|6-4-5-6--5-|6-4-5-6--5-|6-4-5--6b-|x2
G|//-6-4-5-6--5-|6-4-5-6--5-|6-4-5-6--5-|6-4-5-----|(pick slide first time)
C|//-6-4-5-6--5-|6-4-5-6--5-|6-4-5-6--5-|6-4-5-----| 
                                             .

D|------|--------|
A|------|--------|
F|------|--------|
C|-6-5~-|-6-5-4~-| x2 
G|-6-5~-|-6-5-4~-|
C|-6-5~-|-6-5-4~-|
[ Tab from: http://www.guitaretab.com/c/converge/59924.html ]
D|----------------------------------------------|
A|----------------------------------------------|
F|----------------------------------8-8-8-8-8-8-|
C|-0--2--0-2-0--2--0-2-0--2--0-2-0--x-x-x-x-x-x-| x3
G|-0--2--0-2-0--2--0-2-0--2--0-2-0--6-6-6-6-6-6-|
C|-0--2--0-2-0--2--0-2-0--2--0-2-0--------------| 
   .     .   .     .   .     .   .

D|------------------------------------------------------------|
A|------------------------------------------------------------|
F|--------------------------------8-8-8-8-8-8\9-9-9-9\10101010|
C|0--2--0-2-0--2--0-2-0--2--0-2-0-x-x-x-x-x-x\x-x-x-x\x-x-x-x-|
G|0--2--0-2-0--2--0-2-0--2--0-2-0-6-6-6-6-6-6\7-7-7-7\8-8-8-8-|
C|0--2--0-2-0--2--0-2-0--2--0-2-0-----------------------------| 
  .     .   .     .   .     .   .

D|----------------------------------------------------------------|
A|----------------------------------------------------------------|
F|\---------------------------------------------------------------|
C|\11111111\12121212\13131313\14141414\15151515\16161616\17171717\|
G|\x-x-x-x-\x-x-x-x-\x-x-x-x-\x-x-x-x-\x-x-x-x-\x-x-x-x-\x-x-x-x-\|
C|\9-9-9-9-\10101010\11111111\12121212\13131313\14141414\15151515\|

D|-------------------------------|
A|-------------------------------|
F|-------------------------------|
C|18181818\19191919\20202020\24~-|
G|x-x-x-x-\x-x-x-x-\x-x-x-x-\x---|
C|16161616\17171717\18181818\22~-|


D|-------------------|---------------------------|
A|---4b-4b---4b-4b---|---4b-4b---7b--7b--10b-10b-|
F|---7b-7b---7b-7b---|---7b-7b--10b-10b--13b-13b-|
C|-0-------0---------|-0-------------------------| x4
G|-0-------0---------|-0-------------------------|
C|-0-------0-------3b|-0-------------------------|

End on:
D|----------|
A|---4b-4b~-|
F|---7b-7b~-|
C|-0--------|
G|-0--------|
C|-0--------|

| \  slide up
| /  slide down
| h  hammer-on
| p  pull-off
| ~  vibrato
| +  harmonic
| x  Mute note
=============================================================================
my FIRST TAB, wooooooooo.
Related for Eagles Become Vultures tab