Song name
# A B C D E F G H I J K L M N O P Q R S T U V W X Y Z

Converge - Color Me Blood Red tab

Converge
Color Me Blood Red (Intro)
Tabbed by Tony Fox
          tony_is_a_fox@hotmail.com

Tuning: Standard (EADGBe)

b     = full bend
br    = bend and release
~     = vibrato
/     = slide up
p     = pull-off
h     = hammer-on
< >   = natural harmonic
ps( ) = pick slide (fret you start on)

e-------<7>-------------------------------------------------------|
B--<7>------------------------------------------------------------|
G--------------------4--------------------------------------------|
D---------------2----4--3-----------------------------------------|
A---------------2----2-----ps(12)---------------------------------|
E---------------0-------------------------------------------------|

e-----------------------------------------------------------------|
B-----------------------------------------------------------------|
G--11b---10-11h12br-11---10-11h12br-11---10-11h12br-11-10---------|
D---------------------------------------------------------11-9----|
A-----------------------------------------------------------------|
E-----------------------------------------------------------------|
Tap to rate this tab
# A B C D E F G H I J K L M N O P Q R S T U V W X Y Z