Song name
# A B C D E F G H I J K L M N O P Q R S T U V W X Y Z

Converge - In Her Shadow tab

.  - palm mute           /  - slide up to
\  - slide down to       ~  - vibrato
h  - hammer on           b  - Bend
p  - pull off            Suffixes for bend
t  - tap                 f  - full bend    h - half bend
ph - pinched harmonic    q  - quarter bend t - tap bend
*  - see comment         ^  - Hold bend    r release bend
x  - Stuccatto           ~  - vibrato bend
,  - slight palm mute    () - ghost note, sustained note
"  - tremolo note        <> - Trill

Tuning C G C F A D

notes: Ok, this can be played of Acoustic or Clean Guitar really, either good,
There is some distortion at the end, so you may want to go for electric.
There is only one part really, but theres a variation that bridges into the next
part. And theres a slight variation at the End too.

Main
|---2-----2-----2-----2-----2-------2------2------2-----------------|
|---x-----x-----x-----x-----x-------x------x------x-----------------|
|---4-----4-----4-----4----(4)-----(4)----(4)----(4)----------------|
|-2---2-----2-----2-----2-4------4------4------4--------------------|
|-2-----2-----2-----2-----2------2------2------2--------------------| repeat
|-2-----2-----2-----2-----------------------------------------------|

(1:41)
|---2-----2-----2-----2---------------------------------------------|
|---x-----x-----x-----x---------------------------------------------|
|---4-----4-----4-----4--(3)--3-(3)--3-(3)--3-(3)-------------------|
|-2---2-----2-----2-----2-x------x------x------x---x---x---x--------|
|-2-----2-----2-----2-----1------1------1------1---1---1---1--------| x1
|-2-----2-----2-----2------------------------------3---3---3--------|

(1:57)
|--2-----2-----2-----2------2-------2------2------2-----------------|
|--x-----x-----x-----x------x-------x------x------x-----------------|
|--4-----4-----4-----4-----(4)-----(4)----(4)----(4)----------------|
|-2--2-----2-----2-----2-4-------4------4------4--------------------|
|------2-----2-----2-----2-------2------2------2--------------------| x1
|------2-----2-----2------------------------------------------------|

|---2-----2-----2-----2-----2-------2------2------2-----------------|
|---x-----x-----x-----x-----x-------x------x------x-----------------|
|---4-----4-----4-----4----(4)-----(4)----(4)----(4)----------------|
|-2---2-----2-----2-----2-4------4------4------4--------------------|
|-2-----2-----2-----2-----2------2------2------2--------------------| repeat
|-2-----2-----2-----2-----------------------------------------------|

(3:36)
|---2-----2-----2-----2---------------------------------------------|
|---x-----x-----x-----x---------------------------------------------|
|---4-----4-----4-----4--(3)--3-(3)--3-(3)--3-(3)-------------------|
|-2---2-----2-----2-----2-x------x------x------x---x---x---x--------|
|-2-----2-----2-----2-----1------1------1------1---1---1---1--------| x1
|-2-----2-----2-----2------------------------------3---3---3--------|

(3:52)
|--2-----2-----2-----2------2-------2------2------2-----------------|
|--x-----x-----x-----x------x-------x------x------x-----------------|
|--4-----4-----4-----4-----(4)-----(4)----(4)----(4)----------------|
|-2--2-----2-----2-----2-4-------4------4------4--------------------|
|------2-----2-----2-----2-------2------2------2--------------------| x1
|------2-----2-----2------------------------------------------------|

|---2-----2-----2-----2-----2-------2------2------2-----------------|
|---x-----x-----x-----x-----x-------x------x------x-----------------|
|---4-----4-----4-----4----(4)-----(4)----(4)----(4)----------------|
|-2---2-----2-----2-----2-4------4------4------4--------------------|
|-2-----2-----2-----2-----2------2------2------2--------------------| repeat
|-2-----2-----2-----2-----------------------------------------------|

5:31 Distorted/Strum Hard part
|---2-----2-----2-----2---2------2------2------2--------------------|
|---x-----x-----x-----x---x------x------x------x--------------------|
|---4-----4-----4-----4---4------4------4------4--------------------|
|-2---2-----2-----2-----2-4------4------4------4--------------------|
|-2-----2-----2-----2-----2------2------2------2--------------------| x1
|-2-----2-----2-----2-----------------------------------------------|

|-2----2-----2-----2-----2-------2------2------2--------------------|
|-x----x-----x-----x-----x-------x------x------x--------------------|
|-4----4-----4-----4-----4-------4------4------4--------------------|
|-4----4-----4-----4-----4-------4------4------4--------------------|
|-2----2-----2-----2-----2-------2------2------2--------------------| x1
|-------------------------------------------------------------------|

5:53
|--2-----2-----2-----2------2-------2------2------2-----------------|
|--x-----x-----x-----x------x-------x------x------x-----------------|
|--4-----4-----4-----4-----(4)-----(4)----(4)----(4)----------------|
|-2--2-----2-----2-----2-4-------4------4------4--------------------|
|------2-----2-----2-----2-------2------2------2--------------------| x2
|------2-----2-----2------------------------------------------------|
Tap to rate this tab
# A B C D E F G H I J K L M N O P Q R S T U V W X Y Z