Guitaretab - guitar tabs
Song name
# A B C D E F G H I J K L M N O P Q R S T U V W X Y Z

Converge - No Heroes tab

NOT COMPLETE

d----------------------------------------------------------------   ||
a----------------------------------------------------------------  o||
f----------------------------------------------------------------   ||
c--0-4--4-4-4-4--4-5-4-3-5-4-4-4-4-4-4--4-5-4-3-5-4--------------   ||
g--0-4--4-4-4-4--4-5-4-3-5-4-4-4-4-4-4--4-5-4-3-5-4--------------  o||
c--0-4--4-4-4-4--4-----------4-4-4-4-4--4------------------------   ||


d----------------------------------------------------------------   ||
a----------------------------------------------------------------  o||
f----------------------------------------------------------------   ||
c---4-4-4-4-4--4-5-4-3-5-4-4~--3~---5----------------------------   ||
g---4-4-4-4-4--4-5-4-3-5-4-4~--3~---5----------------------------  o||
c---4-4-4-4-4--4-----------4~--3~---5----------------------------   ||


d----------------------------------------------------------------   ||
a----------------------------------------------------------------  o||
f----------------------------------------------------------------   ||
c--0-4--4-4-4-4--4-5-4-3-5-4-4-4-4-4-4--4-5-4-3-5-4--------------   ||
g--0-4--4-4-4-4--4-5-4-3-5-4-4-4-4-4-4--4-5-4-3-5-4--------------  o||
c--0-4--4-4-4-4--4-----------4-4-4-4-4--4------------------------   ||


d----------------------------------------------------------------   ||
a----------------------------------------------------------------  o||
f----------------------------------------------------------------   ||
c---4-4-4-4-4--4-5-4-3-5-4-4~--3~---//---------------------------   ||
g---4-4-4-4-4--4-5-4-3-5-4-4~--3~---//---------------------------  o||
c---4-4-4-4-4--4-----------4~--3~---//---------------------------   ||


d----------------------------------------------------------------   ||
a----------------------------------------------------------------  o||
f------------7-7-7--------------101010---------------------------   ||
c---0-4-3----x-x-x-----0-4-3----x-x-x----------------------------   ||
g---0-4-3----5-5-5-----0-4-3----8-8-8----------------------------  o||
c---0-4-3--------------0-4-3-------------------------------------   ||


d----------------------------------------------------------------   ||
a----------------------------------------------------------------  o||
f------------7-7-7--1010101010-1313--1212------------------------   ||
c---0-4-3----x-x-x--x-x-x-x-x--x-x---x-x-------------------------   ||
g---0-4-3----5-5-5--8-8-8-8-8--1111--1010------------------------  o||
c---0-4-3--------------------------------------------------------   ||

[ Tab from: http://www.guitaretab.com/c/converge/85953.html ]
d----------------------------------------------------------------   ||
a----------------------------------------------------------------  o||
f------------131313-------------161616---------------------------   ||
c---0-4-3----x-x-x-----0-4-3----x-x-x----------------------------   ||
g---0-4-3----111111----0-4-3----141414---------------------------  o||
c---0-4-3--------------0-4-3-------------------------------------   ||

d----------------------------------------------------------------   ||
a----------------------------------------------------------------  o||
f------------131313-1616161616-19-18-----------------------------   ||
c---0-4-3----x-x-x--x-x-x-x-x--x--x------------------------------   ||
g---0-4-3----111111-1414141414-17-16-----------------------------  o||
c---0-4-3--------------------------------------------------------   ||


d----------------------------------------------------------------   ||
a----------------------------------------------------------------  o||
f----------------------------------------------------------------   ||
c--0-4--4-4-4-4--4-5-4-3-5-4-4-4-4-4-4--4-5-4-3-5-4--------------   ||
g--0-4--4-4-4-4--4-5-4-3-5-4-4-4-4-4-4--4-5-4-3-5-4--------------  o||
c--0-4--4-4-4-4--4-----------4-4-4-4-4--4------------------------   ||


d----------------------------------------------------------------   ||
a----------------------------------------------------------------  o||
f----------------------------------------------------------------   ||
c---4-4-4-4-4--4-5-4-3-5-4-4~--3~---5----------------------------   ||
g---4-4-4-4-4--4-5-4-3-5-4-4~--3~---5----------------------------  o||
c---4-4-4-4-4--4-----------4~--3~---5----------------------------   ||


d----------------------------------------------------------------   ||
a----------------------------------------------------------------  o||
f----------------------------------------------------------------   ||
c--0-4--4-4-4-4--4-5-4-3-5-4-4-4-4-4-4--4-5-4-3-5-4--------------   ||
g--0-4--4-4-4-4--4-5-4-3-5-4-4-4-4-4-4--4-5-4-3-5-4--------------  o||
c--0-4--4-4-4-4--4-----------4-4-4-4-4--4------------------------   ||


d----------------------------------------------------------------   ||
a----------------------------------------------------------------  o||
f----------------------------------------------------------------   ||
c---4-4-4-4-4--4-5-4-3-5-4-4~--3~---//---------------------------   ||
g---4-4-4-4-4--4-5-4-3-5-4-4~--3~---//---------------------------  o||
c---4-4-4-4-4--4-----------4~--3~---//---------------------------   ||

dont know the rest... but its almost always the same...
Related for No Heroes tab