Guitaretab - guitar tabs
Song name
# A B C D E F G H I J K L M N O P Q R S T U V W X Y Z

Converge - Fault And Fracture tab

----------------------------------------------------------------------------
			     FAULT AND FRACTURE - Converge
----------------------------------------------------------------------------
Tabbed by:Noiseboy


Tuning: Very odd, but thatís how he does it: C G C F G# C

e|--------------------------------|----------------------|----------------|
B|--------------------------------|----------------------|----------------|
G|--------------------------------|----------------------|----------------|
D|6---6---6-6---6---6-6-----------|----------------------|----------------|
A|5---5---5-5---5---5-5---6-------|5-------2---1---3---2-|1---0---2---1---|
E|6-0-6-0-6-6-0-6-0-6-6-9---7-6-5-|--6-5-4-2---1---3---2-|1---0---2---1---|

e|------------------------------------------------------------------------|
B|--7---7-7-------------7---7-7-------------7---7-7-----------------------|
G|--6---6-6-------------6---6-6-------------6---6-6-----------------------|
D|------------------------------------------------------------------------|
A|--5---5-5-------------5---5-5-------------5---5-5-----------------------|
E|0-----------0-0-0-0-0-----------0-0-0-0-0-----------0-0-0---------------|

e|0h3h6-----------------------------------|-------------------------------|
B|------0h3h6-----------------------------|-------------------------------|
G|------------0h3h6-----------------------|-------------------------------|
D|------------------0h3h6-----------------|-------------------------------|
A|------------------------0h3h6p0-4---3---|--0-------0-------1-0-3-2------|
E|--------------------------------4---3---|--0-------0-------1-0-3-2------|

e|------------------------------------------------------------------------|
B|------------------------------------------------------------------------|
G|------------------------------------------------------------------------|
D|------------------------------------------------------------------------|
A|0-------0---1-0-3-2-----1-0-2-1-----------------------------------------|
E|0-------0---1-0-3-2-----1-0-2-1-----------------------------------------|
[ Tab from: http://www.guitaretab.com/c/converge/88765.html ]
e|-------------|----------------------------------------------------------|
B|-------------|----------------------------------------------------------|
G|-------------|----------------------------------------------------------|
D|-------------|--------------------------7-----------------------------7-|
A|4------3-----|----------------6---------5-------------------6---------5-|
E|4------3-----|0---0-0---0-0---6---0-0-0-----0---0-0---0-0---6---0-0-0---|

e|4-4-4-4-4-4-4-4-4-4-4-4-4-4-4-4-4-4-4-4-4-4-4-4-4--4--4--4--4--4--4--4--|
B|0-0-0-0-0-0-0-0-0-0-0-0-0-0-0-0-0-0-0-0-0-0-0-0-0--0--0--0--0--0--0--0--|
G|--------------------------------9-9-9-9-9-9-9-9-12-12-12-12-12-12-12-12-|
D|4-4-4-4-4-4-4-4-5-5-5-5-5-5-5-5-8-8-8-8-8-8-8-8-11-11-11-11-11-11-11-11-|
A|------------------------------------------------------------------------|
E|------------------------------------------------------------------------|

e|4-----4-----4---5-----5-----5---8-----8---8---11---11-11-11-11-11-11----|
B|0-----0-----0---0-----0-----0---0-----0---0---0----0--0--0--0--0--0-----|
G|----------------------------------------------12---12-12-12-12-12-12----|
D|4-----4-----4---5-----5-----5---8-----8---8---11---11-11-11-11-11-11----|
A|------------------------------------------------------------------------|
E|----0-----0---0-----0-----0---0-----0---0---0---------------------------|

e|--------0-----------0-----------0---------------------------------------|
B|--------3-----------3-----------3b4b3b4b3b4b3b4b3-----------------------|
G|------------------------------------------------------------------------|
D|------------------------------------------------------------------------|
A|4-3---------4-3---------4-3---------------------------------------------|
E|4-3-0-0---0-4-3-0-0---0-4-3-0-0-----------------------------------------|

e|--------------------------------------------------|---------------------|
B|--------0-----------0-----------0-----------------|---------------------|
G|--------2-----------2-----------2b3b2b3b2b3b2b3b2-|---------------------|
D|--------------------------------------------------|---------------------|
A|3-2---------3-2---------3-2-----------------------|3-2------------------|
E|3-2-0-0---0-3-2-0-0---0-3-2-0-0-------------------|3-2-0-0-1b3----------|



| /  slide up
| \  slide down
| h  hammer-on
| p  pull-off
| ~  vibrato
| +  harmonic
| x  Mute note
| b  Bend
============================================================================
Related for Fault And Fracture tab