Song name
# A B C D E F G H I J K L M N O P Q R S T U V W X Y Z

Conway Twitty - Crazy Dreams chords

Crazy Dreams:Harold Jenkins (Conway Twitty.)
Recorded on SUN Records in 1956 or 1957.
Can't find any more info on it.

INTRO: (Played all the way through:) D#

----3-3-3-1--------3-3-3-1-----3-3-3-1-------3-3-3-3----|
-------------4-------------4-----------4-------------4--|
--------------------------------------------------------|
--------------------------------------------------------|
--------------------------------------------------------|
--------------------------------------------------------|

#1.
D#              G#           D#                 A#
Dreams, dreams..crazy, crazy dreams..at night I have
            D#
those crazy dreams.
D#                    G#          D#
You know, I know..you brooooke my heart..that's why I
A#               D#
have those crazy dreams.


(INTERLUDE:)


---3-3-3-1--------3-3-3-1-------3-3-3-1--------3-3-3-1---------|
-----------4---------------4-------------4-------------4-------|
---------------------------------------------------------------|
---------------------------------------------------------------|
---------------------------------------------------------------|
---------------------------------------------------------------|



----8-8-8-6------8-8-8-6-----------3-3-3-1------3-3-3-1---------|
------------9-------------9----------------4-------------4------|
----------------------------------------------------------------|
----------------------------------------------------------------|
----------------------------------------------------------------|
----------------------------------------------------------------|


--------------------------------------3-3-3-1-----3-3-3-1-------|
----------------------------------------------4-----------4-----|
----------------------------------------------------------------|
--12-12-12--10-------12-12-12-10--------------------------------|
----------------13----------------13----------------------------|
----------------------------------------------------------------|

#2.
D#          G#                D#                A#
Blue, blue..loooone..lonesome blues..at night I have those
            D#
those crazy dreams.
D#               G#      D#               A#          D#
Tears fall..like falling rain..at night I only dream again.

#3.
D#              G#      D#                 A#
Dreams, dreams..craaazy dreams..at night I have those crazy
D#
dreams.


OUTRO:
D#
Dreams..dreams..dreams..(Fade.)


A fifties smash from Kraziekhat.
Tap to rate this tab
 
# A B C D E F G H I J K L M N O P Q R S T U V W X Y Z