Song name
# A B C D E F G H I J K L M N O P Q R S T U V W X Y Z

Cookie Levanna - Kama Aiti Rotze tab

tabs by: shim4fun
original: cookie levanna

all rights belong to cookie levanna i just tabbed this.

standart tuning.

song plays out with little to no distortion, except for the last chores.

this is my first tab writing.

link to the official song: http://www.youtube.com/watch?v=Ka_jidh9ReU
facebook page\ band page: https://www.facebook.com/cookielevanna
_____________________________________________________________________________

intro\outro:
e|------------------------------|
B|------------------------------|
G|-------------------4-4----7---|
D|----4-4----7------------------|
A|----------------2------55---5-|
E|-2------55---5----------------|

chores:
e|------------------|------------|
B|------------------|------------|
G|------------------|-4-4----7---|
D|----4-4----7----4-|-4-4-77-7---|
A|-4--4-4-77-7----2-|-----55---5-|
E|-2------55---5----|------------|

1st solo:
e|----------454--7-575---7-754------------454--7-575---7-754-|
B|-7-575---5---5------7-5------5\7-575---5---5------7-5------|
G|------6-6---------------------------6-6--------------------|
D|-----------------------------------------------------------|
A|-----------------------------------------------------------|
E|-----------------------------------------------------------|

break: PM
e|---------------------------------------|
B|---------------------------------------|
G|-------------4-4-4-7-7-7-------------4-|
D|-4-4-4-7-7-7-4-4-4-7-7-7-4-4-4-7-7-7-4-|
A|-4-4-4-7-7-7-2-2-2-5-5-5-4-4-4-7-7-7-2-|
E|-2-2-2-5-5-5-------------2-2-2-5-5-5---|

2nd solo:
e|-----------------------------------|
B|-7557----7757----7557----7757------|
G|-----666-----666-----666-----666---|
D|-----------------------------------|
A|-----------------------------------|
E|-----------------------------------|

this i written for a "one man band", but if you want to play it as more than one person 
(ex: 2 guitars) basicly the 2nd guitar plays like the 1st except for the solo's in which 
the 2nd plays chores.

order:

intro x6
chores x2
1st solo x1 (2nd guitar plays chores)
chores x4 (at the 4th time stop at the vertical line)
break x1
1st solo x1 (2nd guitar plays chores)
chores x4 (at the 4th time stop at the vertical line)
2nd solo x1 (2nd guitar plays chores)
chores x4 (at the 4th time stop at the vertical line)
break x1
chores [DISTORTED] x4 (at the 4th time stop at the vertical line)
outro x2

that's it, hope it helps :)
Tap to rate this tab
 
# A B C D E F G H I J K L M N O P Q R S T U V W X Y Z