Song name
# A B C D E F G H I J K L M N O P Q R S T U V W X Y Z

Cool For August - Dont Wanna Be Here tab

Don't Wanna Be Here
Cool For August
CD: Grand World
Track 1

Tabbed by Neil Crane

Chords
 E Bm  D  A B5 A5
-0--2--2--0-------|
-0--3--3--2-------|
-1--4--2--2--4--2-|
-2--4--0--2--4--2-|
-2--2-----0--2--0-|
-0----------------|

intro:

 E Bm D A (chords played once before lead enters)

 E         Bm    D         A
-----12--------------12------|
---x-16b17---------x-16b17---|
---x---------------x---------|
-----------------------------|
-----------------------------|
-----------------------------|

 E       Bm        D       A
-----------------------------|
-----------------------------|
-----------------------------|  (play main riff 2 times)
-6/7-6---6h7p6-----7/9-7-6---|
-------9-------9-7---------7-|
-----------------------------|

E                      Bm                   D          A
 Something's  wrong my mind is running won't be long before I'm losing faith
E               Bm           D                A
 I will crawl into my soul to find a way to escape this sorry world
E             Bm                       D                 A                     E
 Don't take offense by my cold hearted nature, I can't escape the dreams in my head
             Bm                   D               A
And where is voice of yesterday's cries? Take me away from all your lies


E      Bm              D      A
 And I,  I don't wanna be here for the rest of our life
E      Bm              D       A
 And I,  I don't wanna be here,

 E       Bm        D       A
-----------------------------|
-----------------------------|
-----------------------------|
-6/7-6---6h7p6-----7/9-7-6---|
-------9-------9-7---------7-|
-----------------------------|

E                   Bm                   D                   A
 Something's wrong I don't belong in here staring back at people they talk about
E                   Bm               D                 A
 Whispering words to spite my passion but I'll move on, maybe I'll live in chance
E                 Bm                       D                   A                   E
 It don't make sense why you're just like rest. It's easy to see I'm the one you attest
            Bm                  D                 A
All this spiteful life as the changing hours of you pass before my eyes

E      Bm              D      A
 And I,  I don't wanna be here for the rest of our life
E      Bm              D       A
 And I,  I don't wanna be here,


B5 A5  B5 A5  B5 A5  B5


E                   Bm             D                         A
 Downtown, isn't the future there? All my respect for you it washed away
E                Bm                  D                          A
 Now that you've come back to me you give me yourself, that's all that I need

E      Bm              D      A
 And I,  I don't wanna be here for the rest of our life
E      Bm              D       A
 And I,  I don't wanna be here, you know I'll be

 here.                      you know I'll be
 E       Bm        D       A
-----------------------------|
-----------------------------|
-----------------------------|
-6/7-6---6h7p6-----7/9-7-6---|
-------9-------9-7---------7-|
-----------------------------|

 here.
 E       Bm        D       A              E
--------------------------------9h10p9-------| (this last part is played faintly)
---------------------------------------10-12-|
---------------------------------------------|
-6/7-6---6h7p6-----7/9-7-6-------------------|
-------9-------9-7---------7-----------------|
---------------------------------------------|
Tap to rate this tab
# A B C D E F G H I J K L M N O P Q R S T U V W X Y Z