Song name
# A B C D E F G H I J K L M N O P Q R S T U V W X Y Z

Cool Kids Of Death - Spaliny tab

E-----------------------------------------------|
H-----------------------------------------------|
G---------------------7--7---8--8---------------|
D--7--7----10---10----7--7---8--8---------------|
A--7--7----10---10----5--5---6--6---------------|
E--5--5----8----8-------------------------------|

E--------------------------------------------------------------------|
H--------------------------------------------------------------------|
G--------------------------------------------------------------------|
D----7---------------------------------------------------------------|
A-------6---5---5--5---5-5s7-5s7-------6--5----5---5--5---5-7-5-0----|
E-5-----------8------8---------------5-----------8------8------------|
Tap to rate this tab
# A B C D E F G H I J K L M N O P Q R S T U V W X Y Z