Song name
# A B C D E F G H I J K L M N O P Q R S T U V W X Y Z

Cool Kids Of Death - Biec tab

intro

bass i gitara

G------------------|
D------------------|
A------------------|
E-/3-3-3--6-6-6----|

E------------------|
H------------------|
G------------------|
D--5-5-5--8-8-8----|
A--5-5-5--8-8-8----|
E-/3-3-3--6-6-6----|

refren

giara (przester)

E------------------------------------------------------------------|
H-/12-8-10-12-8-/12-8-10-12-8-/12-8-10-12-8---10-10-10-13-13-13-12-|
G------------------------------------------------------------------|
D------------------------------------------------------------------|
A------------------------------------------------------------------|
E------------------------------------------------------------------|

sax (transkrypcja na gitarę)

E----------------------------------------------------------------------------------------|
H--11b13-11b13-11b13-11b13-11b13-11b13-11b13-11b13-11b13-11b13-11b13-11b13-11b13-11-8-11-|
G----------------------------------------------------------------------------------------|
D----------------------------------------------------------------------------------------|
A----------------------------------------------------------------------------------------|
E----------------------------------------------------------------------------------------|
Tap to rate this tab
# A B C D E F G H I J K L M N O P Q R S T U V W X Y Z