Song name
# A B C D E F G H I J K L M N O P Q R S T U V W X Y Z

Cool Kids Of Death - Bal Sobowtorow tab

(intro) bass riff:

G-----------------------------------------------------------------|
D-----------------------------------------------------------------|
A---------------------------------8-8------8-8-------8-8------8-8-|
E---5-5---5-5---5-5---5-5-----5-5------5-5-------5-5------5-5-----|

G-----------------------------------------------------------------|
D-----------------------------------------------------------------|
A---------------------------------8-8------8-8-------8-8--8-----8-|
E---5-5---5-5---5-5---5-5-----5-5------5-5-------5-5--------5-5---|
                                                           ^pod koniec inaczej :)

riff gitara:

E-------7-7--x-x--7--7--x-x---7--7--x-x--7-7--x-x--------------|
H-------8-8--x-x--8--8--x-x---8--8--x-x--8-8--x-x--------------|
G-------9-9--x-x--9--9--x-x---9--9--x-x--9-9--x-x--------------|
D--------------------------------------------------------------|
A--------------------------------------------------------------|
E--------------------------------------------------------------|

E------12-12-x-x-12-12--x-x--12-12--x-x-12-12-x-x--------------|
H------13-13-x-x-13-13--x-x--13-13--x-x-13-13-x-x--------------|
G------14-14-x-x-14-14--x-x--14-14--x-x-14-14-x-x--------------|
D--------------------------------------------------------------|
A--------------------------------------------------------------|
E--------------------------------------------------------------|

E-------------------------------------------------------------------------------------|
H-------------------------------------------------------------------------------------|
G-------------------------------------------------------------------------------------|
D-----7-6-7-6-7-6-7-6--//10-9-10-9-10-9-10-9-10--2-0-2-0-2-0-2-0-2--------------------|
A--//---------------------------------------------------------------0-3-0-3-0-3-0-3-0-|
E-------------------------------------------------------------------------------------|

E-------------------------------------------------------------------------------------|
H-------------------------------------------------------------------------x-x-x-x-x-x-|
G-------------------------------------------------------------------------x-x-x-x-x-x-|
D-----7-6-7-6-7-6-7-6--//10-9-10-9-10-9-10-9-10---3--3--3-3-3-5-2-0-0-2---x-x-x-x-x-x-|
A--//---------------------------------------------------------------------------------|
E-------------------------------------------------------------------------------------|

E--8-8--5-5--3-3--5-5-----8-8--10-10--5-5--8-8----8-8--12-12--10-10--8-8----5-5--3-3--5-5-/5-/5-|
H--8-8--5-5--3-3--5-5-----8-8--10-10--5-5--8-8----8-8--12-12--10-10--8-8----5-5--3-3--5-5-/5-/5-|
G-----------------------------------------------------------------------------------------------|
D-----------------------------------------------------------------------------------------------|
A-----------------------------------------------------------------------------------------------|
E-----------------------------------------------------------------------------------------------|

przejscie (1:38)

E----5-5--5-5--5-5--5-5----5--5--5--5--5--5--5--5--|
H----5-5--5-5--5-5--5-5----5--6--5--6--5--6--5--6--|
G----5-5--5-5--5-5--5-5----5--7--5--7--5--7--5--7--|
D----7-7--7-7--7-7--7-7----7--7--7--7--7--7--7--7--|
A--------------------------------------------------|
E--------------------------------------------------|
Tap to rate this tab
# A B C D E F G H I J K L M N O P Q R S T U V W X Y Z