Song name
# A B C D E F G H I J K L M N O P Q R S T U V W X Y Z

Cool Kids Of Death - Nie Warto tab

|--------------------------------------|
|--------------------------------------|
|--------------------------------------|
|8-8-8-8----8-8-8----8-8-8-8----8-8-8--|
|8-8-8-8----8-8-8----8-8-8-8----8-8-8--|
|6-6-6-6----6-6-6----6-6-6-6----6-6-6--|

|-------------------------------------------------------------|
|-------------------------------------------------------------|
|--------------------8-8-8----------------------8-8-8---------| x2
|8-8-8-----8-8-8-----8-8-8--8-8-8--8-8-8--------8-8-8--8-8-8--|
|8-8-8-----8-8-8-----6-6-6--8-8-8--8-8-8-----8--6-6-6--8-8-8--|
|6-6-6-6/9-6-6-6-6/9--------6-6-6--6-6-6-6/9-6---------6-6-6--|
zwrotka 
|---------------------------------|----------|
|---------------------------------|----------|
|-8-8-8-8-8-8-8-8-9^9^9^9^9^9^9^9^|-8.-8.-8^-|
|---------------------------------|----------|
|---------------------------------|----------|
|---------------------------------|----------|

|---------------------------------------------------|       \
|---------------------------------------------------|        |
|x88-8-8-8-8-8-8-8--8-8-8-8-8-x33-3--333x-33-3-3333-|        |
|x88-8-8-8-8-8-8-6--8-8-8-8-8-x33-3--333x-33-3-3333-|        |
|x66-6-6-6-6-6-6-6--6-6-6-6-6-x11-1--111x-11-1-1111-|        |
|---------------------------------------------------|        |
                                                              - x3
|---------------------------------------------------------|  |      
|---------------------------------------------------------|  |      
|-------------------------------66-6-6-6-6-6--------------|  |      
|66-6-6-6-6-6-6-6-6-6-6-6-6-6-6-66-6-6-6-6-6-66-6-6-6-6-6-|  |      
|66-6-6-6-6-6-6-6-6-6-6-6-6-6-6-44-4-4-4-4-4-66-6-6-6-6-6-|  |      
|44-4-4-4-4-4-4-4-4-4-4-4-4-4-4--------------44-4-4-4-4-4-| /
  
[HALAS]

|---------------------------------------------------|       \
|---------------------------------------------------|        |
|x88-8-8-8-8-8-8-8--8-8-8-8-8-x33-3--333x-33-3-3333-|        |
|x88-8-8-8-8-8-8-6--8-8-8-8-8-x33-3--333x-33-3-3333-|        |
|x66-6-6-6-6-6-6-6--6-6-6-6-6-x11-1--111x-11-1-1111-|        |
|---------------------------------------------------|        |
                                                              - x3
|---------------------------------------------------------|  |      
|---------------------------------------------------------|  |      
|-------------------------------66-6-6-6-6-6--------------|  |      
|66-6-6-6-6-6-6-6-6-6-6-6-6-6-6-66-6-6-6-6-6-66-6-6-6-6-6-|  |      
|66-6-6-6-6-6-6-6-6-6-6-6-6-6-6-44-4-4-4-4-4-66-6-6-6-6-6-|  |      
|44-4-4-4-4-4-4-4-4-4-4-4-4-4-4--------------44-4-4-4-4-4-| /
Tap to rate this tab
# A B C D E F G H I J K L M N O P Q R S T U V W X Y Z