Song name
# A B C D E F G H I J K L M N O P Q R S T U V W X Y Z

Cool Kids Of Death - Armia Zbawienia tab

intro + zwrotki:

|-----|-----|-----|-----|-----|-----|-----|-----|
|-----|-----|-----|-----|-----|-----|-----|-----|
|-----|-----|-----|-----|-----|-----|-----|-----|
|-10--|-10--|-7---|-7---|-9---|-9---|-10--|-12--|
|-10--|-10--|-7---|-7---|-9---|-9---|-10--|-12--|
|-8---|-8---|-5---|-5---|-7---|-7---|-8---|-10--|

refren:

|-----|-----|-----|-----|
|-----|-----|-----|-----|
|-----|-----|-----|-----|
|-10--|-7---|-10--|-12--|
|-10--|-7---|-10--|-12--|
|-8---|-5---|-8---|-10--|
Tap to rate this tab
# A B C D E F G H I J K L M N O P Q R S T U V W X Y Z