Song name
# A B C D E F G H I J K L M N O P Q R S T U V W X Y Z

Coolio - Gangstas Paradise tab

So,it's drop D tuning I think it's pretty close

That's the intro you can use it for chorus too

E ---------------------------------------------------|
B 10----13-12-10----10-10/12-13--10---13-12-10----10-|
G ---------------13---------------------------13-----|
D ---------------------------------------------------|
A ---------------------------------------------------|
D ---------------------------------------------------|

Verse part:

E|------------------------------------------------------|
B|------------------------------------------------------|
G|------------------------------------------------------|
D|--7--7--7--7--6--6--7--2--7--7--7--7--6--6--7--9--10--|
A|--7--7--7--7--6--6--7--2--7--7--7--7--6--6--7--9--10--|
D|--7--7--7--7--6--6--7--2--7--7--7--7--6--6--7--9--10--|

That's the chords and you play with it till you get it :)
Tap to rate this tab
 
# A B C D E F G H I J K L M N O P Q R S T U V W X Y Z