Song name
# A B C D E F G H I J K L M N O P Q R S T U V W X Y Z

Cooper Alice - Desperado tab

I noticed a shortage of tabs for this song,
when i checked there was just one and that was
just the chords so i thought i'd put on the intro

hi heres the tab -

-----------------------------------------------|
----------5---5h7--5---------------------------|
------4s6---6---------6p4s2------2----2h4--2---|
-----------------------------2h4---4-----------|
-----------------------------------------------|
-----------------------------------------------|

-----------------------------------------------|
------------5---5h7--5-------------------------|
--2-2---4s6---6--------6p4s2--4s6--4--2h4--2h4-|
-----------------------------------------------|
-----------------------------------------------|
-----------------------------------------------|

sorry it's only the intro but its all i got im afraid
i worked hard and it sounds ok to me. . . hope you like it
thanks
Tap to rate this tab
# A B C D E F G H I J K L M N O P Q R S T U V W X Y Z