Song name
# A B C D E F G H I J K L M N O P Q R S T U V W X Y Z

Cooper Temple Clause - Promises Promises tab

Help us improve GuitareTab! Take a short survey!
drop B tuning. listem to the song for rhythms but must be very quick

e
B
G
D
A
B

Into 1/Verse
|---------------------------------------------|
|---------------------------------------------|
|-----------------------------------------5---|
|-----------------------------5-5-5-5---------|  X2
|-----2-2-2-2-----5-5-5-5-----------------3---|
|-0-0---------0-0---------0-0---------0-0-----|

intro 2/Chorus
|---------------------------------------------|
|---------------------------------------------|
|-----9-----------12----------14----------5---|
|-----------------------------------------5---|  X2
|-----7-----------10----------12----------3---|
|-0-0---------0-0---------0-0---------0-0-----|
Related for Promises Promises tab