Song name
# A B C D E F G H I J K L M N O P Q R S T U V W X Y Z

Cooper Temple Clause - Sister Soul tab

I figured this song out the other night bored in my room its one of their best songs
yet its not that well known.


Tuning Standard


INTRO-

|----------------------------------------------|
|--0-------------------------------------------|
|---2----------------------0-----0----------0--|
|----2---2----2-----2-------2---2----2-----2-2-|
|-----1-1----1---1-1-1-------3-3----3---3-3----|
|------0----3---3-3-----------0----3---3-3-----|


|-------------------------------------------------|
|--------------------3------0---------------------|
|----3-----3-----------------2--------------------|
|-----2---2-2--0--------------2---2--4h5p4\2----2-|
|------1-1------2-2----2-3-----1-1-------------1-2|
|-------0--------1------1-------0-------------0---|


(Repaeat all)



CHORUS

C                       G                             Am      Am
Tell me mother when you cry, Can she hear your sorrow sigh?
C                      G                           Am         Am
Sister sleeping in the breeze,you are all she ever sees. 


Repeat verse then chorus


i cant figure the rest of the song just yet but if i do ill tab it please rate it high.

Tap to rate this tab
# A B C D E F G H I J K L M N O P Q R S T U V W X Y Z