Song name
# A B C D E F G H I J K L M N O P Q R S T U V W X Y Z

Copeland - Sleep tab

  G                                                C9
       There's plenty of time left tonight
                                                       G
I promised I'd have you home before
             C9
daylight.
G                                           C9
    We do the best we can in a small town,
                                                   G
to act like big-city kids when the sun
           C9
goes down.

         F                                                 C9
If it's not too late for coffee I'll be at your place in ten.
                     Am                                   C9
We'll hit that all night diner and then we'll see.

e|---------------------------------------------------------------------------|
B|---------------------------------------------------------------------------|
G|-----7-----4----------------7~----4----------------------------------------|
D|-4-5---4-5--7-7--4-5~-4-5----4-5---7-7----4-5--0---------------------------|
A|---------------------------------------------------------------------------|
E|---------------------------------------------------------------------------|

G                                                   C9
    Theres so many things I have to say
                                                   G                     C9
and I'll stay up all night to hear about your day.
 G                                           C9
    We do the best we can in a small town
                                                  G                     C9
to act like kids in love when the sun goes down.

         F                                              C9
If it's not too late for coffee I'll be at your place in ten.
                     Am                                  C9
We'll hit that all night diner and then we'll see.

               G                              F# (200033) Em7
There's a love that transcends all that we've known of ourselves
             Am7
and I'll wait for it to come.
           C9
and I'll wait for it to come.
             G                    F#m7             Em7
Well It's got to be strong to touch my heart through it's shell
             Am7
and I'll wait for it to come.
           C9
and I'll wait for it to come down


e|---------------------------------------------------------------------------|
B|---------------------------------------------------------------------------|
G|-----7-----4----------------7~----4----------------------------------------|
D|-4-5---4-5--7-7--4-5~-4-5----4-5---7-7----4-5--0---------------------------|
A|---------------------------------------------------------------------------|
E|---------------------------------------------------------------------------|
Tap to rate this tab
 
# A B C D E F G H I J K L M N O P Q R S T U V W X Y Z