Song name
# A B C D E F G H I J K L M N O P Q R S T U V W X Y Z

Copeland - By My Side tab

-------------------------------------------------------------------------------
			     By My Side - Copeland - Eat. Sleep. Repeat.
-------------------------------------------------------------------------------

Tabbed by: JebX

Tuning: Standard

They're all great, but this song off the new album is excellent, as you must surely know
now.  Note that there are 5 guitar tracks on this song; guitars 2 and 4 can be combined
will sound decent for live playing.  You're probably wondering where "Gtr.1" got to.  In 
very beginning of the song, you can hear an acoustic strumming an A flat minor.  I
assume it goes on, but that's all I really trust my ear to pick out (very thick mix), so 
you want a tab with them in it, best of luck writing one!

Verse:  Gtr.2
------------------------------------------------------------------------------------|
------------------------------------------------------------------------------------|
--3---3-3---4---4---4---3---3-3---1---1---1---3---3-3---4---4---4---1---1-1------3--|
4---4--4--6---6---6---4---4--4--4---4---4--------------------------2---2--2--2-2/4--|
---------------------------------------------4---4--4--6---6---6--------------------|
------------------------------------------------------------------------------------|
"It's taking time, all this fear..."


-------------------------------------------------------------------------------------|
-------------------------------------------------------------------------------------|
--3---3-3---4---4---4---3---3-3---1---1---1---4---4---4---4---1---1---1---1----------|
4---4--4--6---6---6---4---4--4--4---4---4-------------------1---1---1---1---1--------|
---------------------------------------------4---4---4---4---------------------------|
-------------------------------------------------------------------------------------|


Gtr.3
------------------------------------------------------------------------------------|
-4h5p4-2h4-----0-0-----4h5p4-2h4----------------------------------------------------|
-----------4-1--------------------4-1-3-4---4---------------------------------------|
------------------------------------------------------------------------------------|
------------------------------------------------------------------------------------|
------------------------------------------------------------------------------------|


Chorus:  Gtr.4
------------------------------------------------------------------------------------|
------------------------------------------------------------------------------------|
------------------------------------------------------------------------------------|
7-7-7-7-7-7-7-7-7-7-7-7-7-7-7-7-2-2-2-2-4-4-4-4-------------------------------------|
7-7-7-7-7-7-7-7-7-7-7-7-7-7-7-7-2-2-2-2-4-4-4-4-------------------------------------|
5-5-5-5-5-5-5-5-5-5-5-5-5-5-5-5-0-0-0-0-2-2-2-2-------------------------------------|
"I need you to tell me..."

Gtr.3
------7---------------4-------------------------------------------------------------|
--5---------------5----------------0---0---0---0------------------------------------|
6---6-----------5---5------------1---1---1---1--------------------------------------|
------------------------------------------------------------------------------------|
------------------------------------------------------------------------------------|
------------------------------------------------------------------------------------|


Gtr.4
------------------------------------------------------------------------------------|
------------------------------------------------------------------------------------|
------------------------------------------------------------------------------------|
7-7-7-7-7-7-7-7-7-7-7-7-7-7-7-7------------------7-7-7-7-7-7-7-7-7------------------|
7-7-7-7-7-7-7-7-7-7-7-7-7-7-7-7-9-9-9-9-9-9-9-9-7-7-7-7-7-7-7-7-7-------------------|
5-5-5-5-5-5-5-5-5-5-5-5-5-5-5-5-7-7-7-7-6-6-6-6-5-5-5-5-5-5-5-5-5-------------------|


Gtr.3
------7----------------4---------------------------------7---------4----------------|
--5----------------5---------------0---0---0---0----5--------------5----------------|
6---6------------5---5-----------1---1---1---1----6---6------------5----------------|
------------------------------------------------------------------------------------|
------------------------------------------------------------------------------------|
------------------------------------------------------------------------------------|


2nd Verse:  Gtr.4 (Gated)
-----------------------------------------------------------------------------------|
---------------------------------5-------------------------------------------------|
---------------------------------6-------------------------------------------------|
6---------------4----------------6---------------6---------------------------------|
6---------------4--------------------------------6---------------------------------|
4---------------2--------------------------------4---------------------------------|
"It's taking hold..."
Gtr.3 (same as first verse)
Gtr.4 (Gated for first three chords only)
--------------------------------------------------------------------------------------|
----------------------------------5---------------------------------------------------|
----------------------------------6---------------Crescendo...------------------------|
6----------------4----------------6---------------6-6-6-6-6-6-6-6-6-6-6-6-6-6-6-6-----|
6----------------4--------------------------------6-6-6-6-6-6-6-6-6-6-6-6-6-6-6-6-----|
4----------------2--------------------------------4-4-4-4-4-4-4-4-4-4-4-4-4-4-4-4-----|
Repeat chorus, listen to the end carefully (not hard, repeats parts you already learned)
Obviously, there are several different ways to play the rhythm part that sound the same.
Solo: Gtr.4
------------------------------------------------------------------------------------|
------------------------------------------------------------------------------------|
6-6-6-6-6-6-6-6---------------------------------------------------------------------|
6-6-6-6-6-6-6-6-7-7-7-7-7-7-7-7-9-9-9-9-9-9-9-9-11-11-11-11-11-11-11-11-------------|
4-4-4-4-4-4-4-4-7-7-7-7-7-7-7-7-9-9-9-9-9-9-9-9--9--9--9--9--9--9--9--9-------------|
-----------------5-5-5-5-5-5-5-5-7-7-7-7-8-8-8-8--9--9--9--9--9--9--9--9------------|


Gtr.5
------------------------------------------------------------------------------------|
4h5p4h5p4h5p4h5p4h5p4h5p4h5p4-5h7p5h7p5h7p5h7ph5p7h5p7h5p7h5------------------------|
------------------------------------------------------------------------------------|
------------------------------------------------------------------------------------|
------------------------------------------------------------------------------------|
------------------------------------------------------------------------------------|

------------------------------------------------------|
7h9p7h9p7h9p7-9h10p9h10p9h10p9-4h5p4h5p4h5p4h5p4------|
------------------------------------------------------|
------------------------------------------------------|
------------------------------------------------------|
------------------------------------------------------|


Gtr.4
------------------------------------------------------------------------------------|
------------------------------------------------------------------------------------|
------------------------------------------------------------------------------------|
2-2-2-2-2-2-2-2-7-7-7-7-7-7-7-7-7-7-7-7-7-7-7-7-------------------------------------|
2-2-2-2-2-2-2-2-7-7-7-7-7-7-7-7-7-7-7-7-7-7-7-7-------------------------------------|
0-0-0-0-0-0-0-0-5-5-5-5-5-5-5-5-5-5-5-5-5-5-5-5-------------------------------------|


Gtr.5
------------------------------------------------------------------------------------|
/16----------16-17-19---16-17-19-16b17----------------------------------------------|
----16----16------------------------------------------------------------------------|
-------18---------------------------------------------------------------------------|
------------------------------------------------------------------------------------|
------------------------------------------------------------------------------------|


Gtr.1
5-5-5-5-5-5-5-5-5-5-5-5-5-5-5-5---------------------------------------------------|
5-5-5-5-5-5-5-5-5-5-5-5-5-5-5-5---------------------------------------------------|
6-6-6-6-6-6-6-6-5-5-5-5-5-5-5-5---------------------------------------------------|
7-7-7-7-7-7-7-7-7-7-7-7-7-7-7-7---------------------------------------------------|
7-7-7-7-7-7-7-7-7-7-7-7-7-7-7-7---------------------------------------------------|
5-5-5-5-5-5-5-5-5-5-5-5-5-5-5-5---------------------------------------------------|
"I need you to tell me..."

Chorus:  Gtr.3
----2-------4-------7-------7-------4--------4---------2-------4-------7-------7-----|
--0---0---0---0---5---5---5---5---5---5---5----5----0---0---0---0---7---7---7---7----|
1-------3-------6-------6-------5-------5---------1--------3-------9-------9---------|
-------------------------------------------------------------------------------------|
-------------------------------------------------------------------------------------|
-------------------------------------------------------------------------------------|

----12-------12\-------7-------7-------4-------4-------2---------4------------------|
--9----9---9---------5---5---5---5---5---5---5---5---0---0----0----0----------------|
9--------9---------6-------6-------5-------5-------1--------3-----------------------|
------------------------------------------------------------------------------------|
------------------------------------------------------------------------------------|
------------------------------------------------------------------------------------|

----7-------7-------4-------4-------2--------4---------7------7------4-----4-----12--|
--5---5---5---5---5---5---5---5---0---0---0----0----5---5---5--6---5--5--5--5---9----|
6-------6-------5-------5-------1-------3---------6--------6------5-----5--------9---|
----------------------------------------------------------------------------------9--|
-------------------------------------------------------------------------------------|
-------------------------------------------------------------------------------------|

| /  slide up
| \  slide down
| h  hammer-on
| p  pull-off
| ~  vibrato
| +  harmonic
| x  Mute note
Tap to rate this tab
# A B C D E F G H I J K L M N O P Q R S T U V W X Y Z