Song name
# A B C D E F G H I J K L M N O P Q R S T U V W X Y Z

Copeland - Take Care tab

Copeland - Take Care (intro only)
OK, everyone that has tabbed this has just tried to make it difficult.  Most artists try 
find the easiest way to play something and the previous ways just made it more 
 This is the way they play it.....I've see them live a few times......Enjoy!

Standard Tuning
Lead
e|-----------------------------------------|
B|-------0----------------------------3----|
G|---0-----0---0-----0-----0-----0----0----|
D|------------------------------------x----|
A|-3---3-----3----0----0-2---2-3---3--3----|
E|-----------------------------------------|

Rhythm
e|-----------------------------------------|
B|-3--------------3------3-----3-----------|
G|-0--------------x------0-----0-----------|
D|-x--------------2------x-----x-----------|
A|-3--------------0------2-----3-----------|
E|-----------------------------------------|
Tap to rate this tab
# A B C D E F G H I J K L M N O P Q R S T U V W X Y Z