Song name
# A B C D E F G H I J K L M N O P Q R S T U V W X Y Z

Copeland - Brightest tab

So there are two other tabs that give the basic chord progression, but none that include 
the second guitar part that begins about halfway through the song and goes through the 
end. So here you go!

0:51-1:04
e|------------------------------------------------|
B|-----------------------5------------------------|
G|----------4---4-5~---7---7-5-4-2---2---2---2----|
D|--5-4-5-7---7--------------------4---4---4---4--|
A|------------------------------------------------|
E|------------------------------------------------|

1:05-1:18
e|------------3/7~-----------7-5\-----------------|
B|---------------------5-7-8----------------------|
G|----------4--------7----------------2---2-------|
D|--5-4-5-7-----------------------------4---4-----|
A|------------------------------------------------|
E|------------------------------------------------|

1:19-1:33
e|------------------------------------------------|
B|------------------------------------------------|
G|--4---4---4---4---5---5---5---5---2-4-5~--------|
D|----5---5---5---5---5---5---5---5--------4-5-7~-|
A|------------------------------------------------|
E|------------------------------------------------|

1:34-2:05
e|------------------------------------------------|
B|------------------------------------------------|
G|------4~--------------------------------4~------|
D|--5-7--------4~---2-4-5----------5-7------------|
A|------------------------5-3~--------------------|
E|------------------------------------------------|

That's it! Feel free to post any corrections you may have, but I'm pretty sure it's fine.

Tabbed by: Blake
Tap to rate this tab
 
# A B C D E F G H I J K L M N O P Q R S T U V W X Y Z