Song name
# A B C D E F G H I J K L M N O P Q R S T U V W X Y Z

Copeland - Coffee tab

I saw a few tabs for this song but I felt they were both incorrect and Didn't do 
this song any justice. It's an amazing song! This is a pretty accurate guitar tab 
of the song, I believe, based on the version of Coffee in "Beneath Medicine Tree". 
I hope my work has paid off and will help you out. Enjoy and tell me what you think! 

/ = slide
h = hammer on

Here are all the chords you need to know for this tab.

G
e|-3-| 
B|-3-|
G|-0-|
D|-0-|
A|-2-|
E|-3-|

Csus2
e|-2-| 
B|-3-|
G|-0-|
D|-0-|
A|-3-|
E|-x-|

Em
e|-3-| 
B|-0-|
G|-0-|
D|-2-|
A|-2-|
E|-0-|

Fm
e|-0-| 
B|-0-|
G|-0-|
D|-3-|
A|-3-|
E|-1-|

Asus2
e|-0-| 
B|-0-|
G|-2-|
D|-2-|
A|-0-|
E|-x-|

C9
e|-3-| 
B|-3-|
G|-3-|
D|-2-|
A|-3-|
E|-x-|

*I'm not sure what this chords is called but it looks a lot like C9.
C9~
e|-3-| 
B|-3-|
G|-3-|
D|-1-|
A|-3-|
E|-x-|

F#
e|-3-| 
B|-3-|
G|-2-|
D|-0-|
A|-0-|
E|-2-|

Dsus
e|-3-| 
B|-3-|
G|-2-|
D|-0-|
A|-x-|
E|-x-|

  G                       Csus2
There's plenty of time left tonight
  G                       Csus2
I promised I'd have you home before daylight.
We do the best we can in a small town,
act like big-city kids when the sun goes down.

Em                                           Fm                  
If it's not too late for coffee I'll be at you place in ten.
                     Asus2                    C9~
We'll hit that all night diner and then we'll see.

e|-------------------------------------------------------------------------|
B|-------------------------------------------------------------------------|
G|-------------------------------------------------------------------------|
D|-4-5-/12/-4-5-7-/9-7-7---4-5-4-5-/12/-4-5-7-/9-7-7---4-5-0---------------|
A|-------------------------------------------------------------------------|
E|-------------------------------------------------------------------------|

G                    Csus2          
There are so many things I have to say
                                     G           Csus2
and I'll stay up all night to hear about your day.
G                           Csus2
We do the best we can in a small town
                                    G         Csus2
to act like kids in love when the sun goes down.

Em                                           Fm                  
If it's not too late for coffee I'll be at you place in ten.
                     Asus2                    C9~
We'll hit that all night diner and then we'll see.

G                               F#                    Em         Dsus
There's a love that transcends all that we've known of ourselves
C9                                 
and I'll wait for it to come
C9~
I'll wait for it to come.
G               F#                   Em                    Dsus
It's got to be strong to touch my heart through it's shell
C9                                 
and I'll wait for it to come
C9~
I'll wait for it to come.

I'm not sure you will want to actually play the next part, but here is the tab 
anyway. There are two guitars.

Rhythm Guitar
e|---2-------0--------------------------------------------------------------|
B|---3-------3--------------------------------------------------------------|
G|---0--x6---0--x6----------------------------------------------------------|
D|---x-------x--------------------------------------------------------------|
A|---x-------3--------------------------------------------------------------|
E|---3----------------------------------------------------------------------|

Lead Guitar
e|---------2-0-----------0--------------2-0----------0----------------------|
B|-----3-------------3------3-------3------------1------3-------------------|
G|---0---------------0------------0-----------3--0--------------------------|
D|----------------3---------------------------------------------------------|
A|--------------------------------------------------------------------------|
E|--------------------------------------------------------------------------|

Em                                           Fm                  
If it's not too late for coffee I'll be at you place in ten.
                     Asus2                    C9~
We'll hit that all night diner and then we'll see.


G                               F#                    Em         Dsus
There's a love that transcends all that we've known of ourselves
C9                                 
and I'll wait for it to come
C9~
I'll wait for it to come.
G               F#                   Em                    Dsus
Well it's got to be strong to touch my heart through it's shell
C9                                 
and I'll wait for it to come
C9~
I'll wait for it to come, down.

Lead
e|-------------------------------------------------------------------------|
B|-------------------------------------------------------------------------|
G|-------------------------------------------------------------------------|
D|-4-5-/12/-4-5-7-/9-7-7---4-5-4-5-/12/-4-5-7-/9-7-7---4-5-0---------------|
A|-------------------------------------------------------------------------|
E|-------------------------------------------------------------------------|

Rhythm 

*Alternates between G and C9/Csus until the end of the song. Add little accents if you want. 

There, that's it, done. 
Tap to rate this tab
# A B C D E F G H I J K L M N O P Q R S T U V W X Y Z