Song name
# A B C D E F G H I J K L M N O P Q R S T U V W X Y Z

Copeland - Interlude tab

I actually started on this tab roughly 2 years ago after learning it by ear. It took me
a while to complete it (mainly because I got distracted). However, here it is! There
might be one other guitar part, but it mostly follows this pattern as well (with a few 
minor variations).

"Interlude" - Copeland (Dressed Up And In Line - 2007)


   1&2&3&4&1&2&3&4&
e|----0------------|
B|-1~---1----------|
G|---0---0---------| (2 times)
D|-----------------|
A|-0~--------------|
E|-----------------|

   1&2&3&4&1&2&3&4&1&2&3&4&1&2&3&4&
e|--------------------0-------0-----|
B|-1~-0--1-0~------1~---1--3----3---|
G|---2--2-----0~-----0---0---0---0--| (2 times)
D|----------------------------------|
A|-0~------3~-----------------------|
E|-----------------1~------3--------|

   1&2&3&4&1&2&3&4&1&2&3&4&1&2&3&4&
e|----0---------------0-------0----|
B|-3----3--8-/1----1~---1--3~---3--|
G|---0---0-----------0---0---0---0-|
D|---------------------------------|
A|-3-------0-----------------------|
E|-----------------1~------3~------|

   1&2&3&4&1 &2&3&4&
e|------------------|
B|-3~-5--8-13-/2----|
G|---0--------------|
D|------------------|
A|---------0--------|
E|-3~---------------|



   1&2&3&4&1&2&3&4&
e|----0-------0----|
B|-1~---1--3~---3--|
G|---0---0---0---0-|   (2 times)
D|-----------------|
A|-----------------|
E|-1~------3~------|

   1&2&3&4&1&2&3&4&1&2&3&4&1&2&3&4&
e|--------------------0-------0-----|
B|-1~-0--1-0~------1~---1--3~---3---|
G|---2--2-----0~-----0---0---0---0--| (2 times)
D|----------------------------------|
A|-0~------3~-----------------------|
E|-----------------1~------3~-------|


   1&2&3&4&1&2&3&4&1&2&3&4&1&2&3&4&
e|----0---------------0-------0----|
B|-3----3--8-/1----1~---1--3~---3--|
G|---0---0-----------0---0---0---0-|  (3 times)
D|---------------------------------|
A|-3-------0-----------------------|
E|-----------------1~------3~------|

   1&2&3&4&1 &2&3&4&
e|------------------|
B|-3~-5--8-13-/2----|
G|---0--------------|
D|------------------|
A|---------0--------|
E|-3~---------------|

   1&2&3&4&1&2&3&4&
e|----0-------0----|
B|-1~----1-3~---3--|
G|---0--0----0---0-|  (3 times)
D|-----------------|
A|-----------------|
E|-1~------3~------|

   1&2&3&4&1&2&3&4&
e|-----------------|
B|-1~--------------|
G|-----------------|
D|-----------------|
A|-0~--------------|
E|-----------------|
Tap to rate this tab
 
# A B C D E F G H I J K L M N O P Q R S T U V W X Y Z