Song name
# A B C D E F G H I J K L M N O P Q R S T U V W X Y Z

Copeland - Dont Slow Down Acoustic tab

-------------------------------------------------------------------------------
			     Don't Slow Down - Copeland
-------------------------------------------------------------------------------
Tabbed by: Colin	
Email:colinawthnowena@netscape.net	

Tuning: regular


Opening/Verse
Guitar 1
e|-x------x------------------------------------------------------------------|
B|-3------3------------------------------------------------------------------|
G|-2------0------------------------------------------------------------------|x2
D|-0-x8---0-x8---------------------------------------------------------------|
A|-2------x------------------------------------------------------------------|
E|-x------3------------------------------------------------------------------|

Guitar 2
e|---------------------------------------------------------------------------|
B|---------------------------------------------------------------------------|
G|-----6---------------------------------------------------------------------|x2
D|---4---------7-------------------------------------------------------------|
A|-2---------5---------------------------------------------------------------|
E|---------3-----------------------------------------------------------------|

Chorus
You can take everything...
e|-2------3------------------------------------------------------------------|
B|-3------3------------------------------------------------------------------|
G|-2-x8---0-x8---------------------------------------------------------------|x3
D|-0------0------------------------------------------------------------------|
A|-0------0------------------------------------------------------------------|
E|-x-------3-----------------------------------------------------------------|
Last time...
e|-2-----0-----0-------------------------------------------------------------|
B|-3-----3-----3-------------------------------------------------------------|
G|-2-x8--2-x4--2-x4----------------------------------------------------------|x1
D|-0-----0-----2-------------------------------------------------------------|
A|-0-----2-----0-------------------------------------------------------------|
E|-x-----x-----x-------------------------------------------------------------|

Cause your words hit...
Guitar 1
e|-x-----x-----x-------------------------------------------------------------|
B|-3-----3-----3-------------------------------------------------------------|
G|-0-x4--2-x2--2-x2----------------------------------------------------------|
D|-0-----0-----2-------------------------------------------------------------|
A|-x-----2-----0-------------------------------------------------------------|
E|-3-----x-----x-------------------------------------------------------------|

Guitar 2
e|-2-----2-----2------0-----0-----0------------------------------------------|
B|---3-----3-----3------3-----3-----3----------------------------------------|
G|-----2-----2------------2-----2--------------------------------------------|x4
D|---------------------------------------------------------------------------|
A|---------------------------------------------------------------------------|
E|---------------------------------------------------------------------------|

Intro to Bridge
Guitar 1
e|-0-------------------------------------------------------------------------|
B|-3-------------------------------------------------------------------------|
G|-0-x16---------------------------------------------------------------------|
D|-0-------------------------------------------------------------------------|
A|-0-------------------------------------------------------------------------|
E|-3-------------------------------------------------------------------------|

Guitar 2
e|---------------------------------------------------------------------------|
B|---------------------------------------------------------------------------|
G|-9--11--14------9----------------------------------------------------------|
D|-------------------11--9---------------------------------------------------|
A|---------------------------------------------------------------------------|
E|---------------------------------------------------------------------------|


Bridge
Guitar 1
e|-0-----0-----0-----0-----0-------------------------------------------------|
B|-3-----3-----3-----3-----3-------------------------------------------------|
G|-2-x8--2-x8--0-x8--2-x4--2-x4----------------------------------------------|
D|-0-----2-----0-----0-----2-------------------------------------------------|
A|-2-----0-----x-----2-----0-------------------------------------------------|
E|-x-----x-----3-----x-----x-------------------------------------------------|

Guitar 2
e|---------------------------------------------------------------------------|
B|---------------------------------------------------------------------------|
G|-9-11--------9-11--------9-11----------------------------------------------|
D|------9-12--------9-12--------9-12---9--9-7--------------------------------|
A|---------------------------------------------------------------------------|
E|---------------------------------------------------------------------------|
Tap to rate this tab
# A B C D E F G H I J K L M N O P Q R S T U V W X Y Z