Guitaretab - guitar tabs
Song name
# A B C D E F G H I J K L M N O P Q R S T U V W X Y Z

Copeland - No One Really Wins This Game tab

-------------------------------------------------------------------------------
			     No One Really Wins - Copeland
-------------------------------------------------------------------------------
Tabbed by: Jordan Lontine
Email: jordanlontine@hotmail.com

Tuning: Standard

VERSE
Guitar 1:
e--------------------------------------|
B--------------------------------------|
G--------------------------------------|
D--------------------------------------|
A----------------9-9-10-10-12-12-12-12-|
E-/7-7-7-7-7-7-------------------------|

Guitar 1:
e-----------------------|
B-----------------------|
G-----------------------|
D-5-5-5-5-5-9-7-7-7-9-7-|
A-5-5-5-5-5-9-7-7-7-9-7-|
E-3-3-3-3-3-7-5-5-5-7-5-|

Guitar 2:
e|-----7~--7-5~--5-5-7-5----------------|
B|---5---5-----5---------5-(x2)---------|
G|-7------------------------------------|
D|--------------------------------------|
A|--------------------------------------|
E|--------------------------------------|

CHORUS 2 (its just drums and vocals during the first chorus):
e|-10-10-10-101010-10-9--9--------------|
B|-12-12-12-121212-12-12-12(x3)--------|
G|--------------------------------------|

e|-10-10-10-101010-10-12121212--14-14-14-1414-14-12----|
B|-12-12-12-121212-12-12121212--12-12-12-1212-12-12----|
G|-----------------------------------------------------|
[ Tab from: http://www.guitaretab.com/c/copeland/62036.html ]
e|-12-12-14-14-14-1414-17-14--12-12-12-12-12-1515-14-12|
B|-12-12-12-12-12-1212-12-12--12-12-12-12-12-1212-12-12|
G|-----------------------------------------------------|


e|-12-12-14-14-14-14-----------------------------------|
B|-12-12-12-12-12-12-----------------------------------|
G|-----------------------------------------------------|

BRIDGE (under the solo):
Guitar 1:
e|-----------------------------------------------------|
B|-----------------------------------------------------|
G|-----------------7-----------------------------------|
D|-5----7----9-----7----5----7----9----9---------------|
A|-5----7----9-----5----5----7----9----9----(x2)-------|
E|-3----5----7----------3----5----7----7---------------|

OUTRO: (the guitar just before the outro is nearly the same as the bridge chords, as are 
chords for the rhythm of the outro)
Guitar 2:
e|---------|-------------------------------------------|
B|-7-8-7---|-----5-------7-------5---7-8-7-------------|
G|-------7-|-7-7---7-7-7---7-7-7---7-------7--(x10)----|
D|---------|-------------------------------------------|
A|---------|-------------------------------------------|
E|---------|-------------------------------------------|

I decided not to tab the solo because someone else already did a good job on it.  I 
they may have missed a few creative trills or something but thats why copeland is copeland 
not us.
As always; comments, suggestions and corrections are welcome.  Enjoy.

| /  slide up
| \  slide down
| h  hammer-on
| p  pull-off
| ~  let ring
| +  harmonic
| x  Mute note
===============================================================================
Related for No One Really Wins This Game tab